  0
SECTION
  2
HEADER
  9
$ACADVER
  1
AC1009
  9
$INSBASE
 10
0.0
 20
0.0
 30
0.0
  9
$EXTMIN
 10
48.9900069796797624
 20
11.8811937102012397
 30
0.0
  9
$EXTMAX
 10
54.0994603456094723
 20
16.2058646851240518
 30
0.0
  9
$LIMMIN
 10
0.0
 20
0.0
  9
$LIMMAX
 10
17.0
 20
11.0
  9
$ORTHOMODE
 70
     1
  9
$REGENMODE
 70
     1
  9
$FILLMODE
 70
     1
  9
$QTEXTMODE
 70
     0
  9
$MIRRTEXT
 70
     0
  9
$DRAGMODE
 70
     2
  9
$LTSCALE
 40
0.9350000000000001
  9
$OSMODE
 70
    37
  9
$ATTMODE
 70
     1
  9
$TEXTSIZE
 40
0.2
  9
$TRACEWID
 40
0.05
  9
$TEXTSTYLE
  7
STANDARD
  9
$CLAYER
  8
0
  9
$CELTYPE
  6
BYLAYER
  9
$CECOLOR
 62
     1
  9
$DIMSCALE
 40
1.0
  9
$DIMASZ
 40
0.09375
  9
$DIMEXO
 40
0.0625
  9
$DIMDLI
 40
0.6459999999999999
  9
$DIMRND
 40
0.0
  9
$DIMDLE
 40
0.0
  9
$DIMEXE
 40
0.075
  9
$DIMTP
 40
0.001
  9
$DIMTM
 40
0.001
  9
$DIMTXT
 40
0.09375
  9
$DIMCEN
 40
0.153
  9
$DIMTSZ
 40
0.0
  9
$DIMTOL
 70
     1
  9
$DIMLIM
 70
     0
  9
$DIMTIH
 70
     1
  9
$DIMTOH
 70
     1
  9
$DIMSE1
 70
     0
  9
$DIMSE2
 70
     0
  9
$DIMTAD
 70
     0
  9
$DIMZIN
 70
     0
  9
$DIMBLK
  1

  9
$DIMASO
 70
     1
  9
$DIMSHO
 70
     1
  9
$DIMPOST
  1

  9
$DIMAPOST
  1

  9
$DIMALT
 70
     0
  9
$DIMALTD
 70
     2
  9
$DIMALTF
 40
25.3999999999999986
  9
$DIMLFAC
 40
1.0
  9
$DIMTOFL
 70
     0
  9
$DIMTVP
 40
0.0
  9
$DIMTIX
 70
     0
  9
$DIMSOXD
 70
     0
  9
$DIMSAH
 70
     0
  9
$DIMBLK1
  1

  9
$DIMBLK2
  1

  9
$DIMSTYLE
  2
STANDARD
  9
$DIMCLRD
 70
     0
  9
$DIMCLRE
 70
     0
  9
$DIMCLRT
 70
     0
  9
$DIMTFAC
 40
1.0
  9
$DIMGAP
 40
0.09
  9
$LUNITS
 70
     2
  9
$LUPREC
 70
     4
  9
$SKETCHINC
 40
0.1
  9
$FILLETRAD
 40
0.25
  9
$AUNITS
 70
     0
  9
$AUPREC
 70
     0
  9
$MENU
  1
.
  9
$ELEVATION
 40
0.0
  9
$PELEVATION
 40
0.0
  9
$THICKNESS
 40
0.0
  9
$LIMCHECK
 70
     0
  9
$BLIPMODE
 70
     0
  9
$CHAMFERA
 40
0.0
  9
$CHAMFERB
 40
0.0
  9
$SKPOLY
 70
     0
  9
$TDCREATE
 40
2458956.5668865740299225
  9
$TDUPDATE
 40
2458991.3925231480970979
  9
$TDINDWG
 40
3.6849074073999999
  9
$TDUSRTIMER
 40
3.6849074073999999
  9
$USRTIMER
 70
     1
  9
$ANGBASE
 50
0.0
  9
$ANGDIR
 70
     0
  9
$PDMODE
 70
     3
  9
$PDSIZE
 40
0.125
  9
$PLINEWID
 40
0.0
  9
$COORDS
 70
     1
  9
$SPLFRAME
 70
     0
  9
$SPLINETYPE
 70
     6
  9
$SPLINESEGS
 70
     8
  9
$ATTDIA
 70
     1
  9
$ATTREQ
 70
     1
  9
$HANDLING
 70
     1
  9
$HANDSEED
  5
FEE
  9
$SURFTAB1
 70
     6
  9
$SURFTAB2
 70
     6
  9
$SURFTYPE
 70
     6
  9
$SURFU
 70
     6
  9
$SURFV
 70
     6
  9
$UCSNAME
  2

  9
$UCSORG
 10
0.0
 20
0.0
 30
0.0
  9
$UCSXDIR
 10
1.0
 20
0.0
 30
0.0
  9
$UCSYDIR
 10
0.0
 20
1.0
 30
0.0
  9
$PUCSNAME
  2

  9
$PUCSORG
 10
0.0
 20
0.0
 30
0.0
  9
$PUCSXDIR
 10
1.0
 20
0.0
 30
0.0
  9
$PUCSYDIR
 10
0.0
 20
1.0
 30
0.0
  9
$USERI1
 70
     0
  9
$USERI2
 70
     0
  9
$USERI3
 70
     0
  9
$USERI4
 70
     0
  9
$USERI5
 70
     0
  9
$USERR1
 40
0.0
  9
$USERR2
 40
0.0
  9
$USERR3
 40
0.0
  9
$USERR4
 40
0.0
  9
$USERR5
 40
0.0
  9
$WORLDVIEW
 70
     1
  9
$SHADEDGE
 70
     3
  9
$SHADEDIF
 70
    70
  9
$TILEMODE
 70
     1
  9
$MAXACTVP
 70
    64
  9
$PLIMCHECK
 70
     0
  9
$PEXTMIN
 10
1.0000000000000000E+20
 20
1.0000000000000000E+20
 30
1.0000000000000000E+20
  9
$PEXTMAX
 10
-1.0000000000000000E+20
 20
-1.0000000000000000E+20
 30
-1.0000000000000000E+20
  9
$PLIMMIN
 10
0.0
 20
0.0
  9
$PLIMMAX
 10
12.0
 20
9.0
  9
$UNITMODE
 70
     0
  9
$VISRETAIN
 70
     1
  9
$PLINEGEN
 70
     0
  9
$PSLTSCALE
 70
     1
  0
ENDSEC
  0
SECTION
  2
TABLES
  0
TABLE
  2
VPORT
 70
     1
  0
VPORT
  2
*ACTIVE
 70
     0
 10
0.0
 20
0.0
 11
1.0
 21
1.0
 12
52.6171908667919368
 22
13.6793756435826399
 13
0.0
 23
0.0
 14
1.0
 24
1.0
 15
0.0
 25
0.0
 16
0.0
 26
0.0
 36
1.0
 17
0.0
 27
0.0
 37
0.0
 40
8.5318868391157743
 41
2.118489583333333
 42
50.0
 43
0.0
 44
0.0
 50
0.0
 51
0.0
 71
     0
 72
   100
 73
     1
 74
     1
 75
     0
 76
     0
 77
     0
 78
     0
  0
ENDTAB
  0
TABLE
  2
LTYPE
 70
     6
  0
LTYPE
  2
CONTINUOUS
 70
     0
  3
Solid line
 72
    65
 73
     0
 40
0.0
  0
LTYPE
  2
CENTER
 70
     0
  3
____ _ ____ _ ____ _ ____ _ ____ _ ____ _ ____
 72
    65
 73
     4
 40
0.6
 49
0.375
 49
-0.075
 49
0.075
 49
-0.075
  0
LTYPE
  2
HIDDEN
 70
     0
  3
- - - - - - - - - - - - - - - - - - - -
 72
    65
 73
     2
 40
0.2
 49
0.1
 49
-0.1
  0
LTYPE
  2
PHANTOM
 70
     0
  3
_____ _ _ _____ _ _ _____ _ _ _____
 72
    65
 73
     6
 40
0.8
 49
0.45
 49
-0.05
 49
0.1
 49
-0.05
 49
0.1
 49
-0.05
  0
LTYPE
  2
DOT
 70
     0
  3
. . . . . . . . . . . . . . . . . . . .
 72
    65
 73
     2
 40
0.2
 49
0.1
 49
-0.1
  0
LTYPE
  2
DASHED
 70
     0
  3
- - - - - - - - - - - - - - - - - - - -
 72
    65
 73
     2
 40
0.2
 49
0.1
 49
-0.1
  0
ENDTAB
  0
TABLE
  2
LAYER
 70
    14
  0
LAYER
  2
0
 70
     0
 62
     7
  6
CONTINUOUS
  0
LAYER
  2
DEFAULT_1
 70
     0
 62
     7
  6
CENTER
  0
LAYER
  2
DEFAULT_2
 70
     0
 62
     8
  6
HIDDEN
  0
LAYER
  2
DEFAULT_3
 70
     0
 62
     7
  6
PHANTOM
  0
LAYER
  2
10_ALL_DETAIL
 70
     0
 62
     7
  6
CONTINUOUS
  0
LAYER
  2
1_ALL_PLANES
 70
     0
 62
     7
  6
CONTINUOUS
  0
LAYER
  2
1__DEF_PLANES
 70
     0
 62
     7
  6
CONTINUOUS
  0
LAYER
  2
2_ALL_CSYS
 70
     0
 62
     7
  6
CONTINUOUS
  0
LAYER
  2
2__DEF_CSYS
 70
     0
 62
     7
  6
CONTINUOUS
  0
LAYER
  2
3_ALL_AXES
 70
     0
 62
     7
  6
CONTINUOUS
  0
LAYER
  2
6_ALL_SURFS
 70
     0
 62
     7
  6
CONTINUOUS
  0
LAYER
  2
7_ALL_FEATURES
 70
     0
 62
     7
  6
CONTINUOUS
  0
LAYER
  2
XSEC_DATUMS
 70
     0
 62
     7
  6
CONTINUOUS
  0
LAYER
  2
DEFPOINTS
 70
     0
 62
     7
  6
CONTINUOUS
  0
ENDTAB
  0
TABLE
  2
STYLE
 70
     3
  0
STYLE
  2
STANDARD
 70
     0
 40
0.0
 41
0.8
 50
0.0
 71
     0
 42
0.2
  3
txt
  4

  0
STYLE
  2
ANNOTATIVE
 70
     0
 40
0.0
 41
1.0
 50
0.0
 71
     0
 42
0.2
  3
txt
  4

  0
STYLE
  2
TEXTSTYLE_1
 70
     0
 40
0.0
 41
0.8
 50
0.0
 71
     0
 42
0.2
  3
gdt
  4

  0
ENDTAB
  0
TABLE
  2
VIEW
 70
     0
  0
ENDTAB
  0
TABLE
  2
UCS
 70
     0
  0
ENDTAB
  0
TABLE
  2
APPID
 70
     9
  0
APPID
  2
ACAD
 70
     0
  0
APPID
  2
ACADANNOTATIVE
 70
     0
  0
APPID
  2
ACAD_EXEMPT_FROM_CAD_STANDARDS
 70
     0
  0
APPID
  2
ACAD_DSTYLE_DIMRADIAL_EXTENSION
 70
     0
  0
APPID
  2
ACAD_NAV_VCDISPLAY
 70
     0
  0
APPID
  2
ACADANNOMONITORALERTICONDI
 70
     0
  0
APPID
  2
ACAD_MLEADERVER
 70
     0
  0
APPID
  2
ACAD_PSEXT
 70
     0
  0
APPID
  2
ACADANNOMONITORALERTICOND0
 70
     0
  0
ENDTAB
  0
TABLE
  2
DIMSTYLE
 70
     2
  0
DIMSTYLE
  2
STANDARD
 70
     0
  3

  4

  5

  6

  7

 40
1.0
 41
0.09375
 42
0.0625
 43
0.38
 44
0.075
 45
0.0
 46
0.0
 47
0.001
 48
0.001
140
0.09375
141
0.09
142
0.0
143
25.3999999999999986
144
1.0
145
0.0
146
1.0
147
0.09
 71
     1
 72
     0
 73
     1
 74
     1
 75
     0
 76
     0
 77
     0
 78
     4
170
     0
171
     2
172
     0
173
     0
174
     0
175
     0
176
     0
177
     0
178
     0
  0
DIMSTYLE
  2
ANNOTATIVE
 70
     0
  3

  4

  5

  6

  7

 40
1.0
 41
0.18
 42
0.0625
 43
0.38
 44
0.18
 45
0.0
 46
0.0
 47
0.0
 48
0.0
140
0.18
141
0.09
142
0.0
143
25.3999999999999986
144
1.0
145
0.0
146
1.0
147
0.09
 71
     0
 72
     0
 73
     1
 74
     1
 75
     0
 76
     0
 77
     0
 78
     0
170
     0
171
     2
172
     0
173
     0
174
     0
175
     0
176
     0
177
     0
178
     0
  0
ENDTAB
  0
ENDSEC
  0
SECTION
  2
BLOCKS
  0
BLOCK
  8
0
  2
$MODEL_SPACE
 70
     0
 10
0.0
 20
0.0
 30
0.0
  3
$MODEL_SPACE
  1

  0
ENDBLK
  5
ED7
  8
0
  0
BLOCK
 67
     1
  8
0
  2
$PAPER_SPACE
 70
     0
 10
0.0
 20
0.0
 30
0.0
  3
$PAPER_SPACE
  1

  0
ENDBLK
  5
ED3
 67
     1
  8
0
  0
BLOCK
  8
0
  2
*D2
 70
     1
 10
0.0
 20
0.0
 30
0.0
  3
*D2
  1

  0
LINE
  5
72E
  8
0
 62
     0
 10
34.8986231075644895
 20
13.5611057101416304
 30
0.0
 11
34.8986231075644895
 21
14.3223148242001006
 31
0.0
  0
LINE
  5
72F
  8
0
 62
     0
 10
42.6486231075644824
 20
13.5611057101416304
 30
0.0
 11
42.6486231075644824
 21
14.3223148242001006
 31
0.0
  0
LINE
  5
730
  8
0
 62
     0
 10
35.0986231075644781
 20
14.2473148242000995
 30
0.0
 11
38.5036231075644721
 21
14.2473148242000995
 31
0.0
  0
LINE
  5
731
  8
0
 62
     0
 10
42.4486231075644724
 20
14.2473148242000995
 30
0.0
 11
39.0436231075644784
 21
14.2473148242000995
 31
0.0
  0
SOLID
  5
732
  8
0
 62
     0
 10
35.0986231075644781
 20
14.2806481575334292
 30
0.0
 11
35.0986231075644781
 21
14.2139814908667699
 31
0.0
 12
34.8986231075644895
 22
14.2473148242000995
 32
0.0
 13
34.8986231075644895
 23
14.2473148242000995
 33
0.0
  0
SOLID
  5
733
  8
0
 62
     0
 10
42.4486231075644724
 20
14.2806481575334292
 30
0.0
 11
42.4486231075644724
 21
14.2139814908667699
 31
0.0
 12
42.6486231075644824
 22
14.2473148242000995
 32
0.0
 13
42.6486231075644824
 23
14.2473148242000995
 33
0.0
  0
INSERT
  5
734
  8
0
 62
     1
  2
*U3
 10
0.0
 20
0.0
 30
0.0
  0
POINT
  5
735
  8
DEFPOINTS
 62
     0
 10
34.8986231075644895
 20
13.3736057101416304
 30
0.0
  0
POINT
  5
736
  8
DEFPOINTS
 62
     0
 10
42.6486231075644824
 20
13.3736057101416304
 30
0.0
  0
POINT
  5
737
  8
DEFPOINTS
 62
     0
 10
42.6486231075644824
 20
14.2473148242000995
 30
0.0
  0
ENDBLK
  5
279
  8
0
  0
BLOCK
  8
0
 62
     1
  2
*U3
 70
     1
 10
0.0
 20
0.0
 30
0.0
  3
*U3
  1

  0
TEXT
  5
9FB
  8
0
 62
     0
 10
38.5936231075644827
 20
14.1723148242001002
 30
0.0
 40
0.15
  1
7.75
 41
0.8
  0
ENDBLK
  5
9FD
  8
0
 62
     1
  0
BLOCK
  8
0
  2
*D4
 70
     1
 10
0.0
 20
0.0
 30
0.0
  3
*D4
  1

  0
LINE
  5
724
  8
0
 62
     0
 10
42.4611231075644895
 20
13.7486057101416392
 30
0.0
 11
43.6389451013660619
 21
13.7486057101416392
 31
0.0
  0
LINE
  5
725
  8
0
 62
     0
 10
42.4611231075644895
 20
10.9986057101416304
 30
0.0
 11
43.6389451013660619
 21
10.9986057101416304
 31
0.0
  0
LINE
  5
726
  8
0
 62
     0
 10
43.5639451013660377
 20
13.5486057101416399
 30
0.0
 11
43.5639451013660377
 21
12.5386057101416295
 31
0.0
  0
LINE
  5
727
  8
0
 62
     0
 10
43.5639451013660377
 20
11.1986057101416296
 30
0.0
 11
43.5639451013660377
 21
12.2086057101416401
 31
0.0
  0
SOLID
  5
728
  8
0
 62
     0
 10
43.5306117680327134
 20
13.5486057101416399
 30
0.0
 11
43.5972784346993905
 21
13.5486057101416399
 31
0.0
 12
43.5639451013660377
 22
13.7486057101416392
 32
0.0
 13
43.5639451013660377
 23
13.7486057101416392
 33
0.0
  0
SOLID
  5
729
  8
0
 62
     0
 10
43.5306117680327134
 20
11.1986057101416296
 30
0.0
 11
43.5972784346993905
 21
11.1986057101416296
 31
0.0
 12
43.5639451013660377
 22
10.9986057101416304
 32
0.0
 13
43.5639451013660377
 23
10.9986057101416304
 33
0.0
  0
INSERT
  5
72A
  8
0
 62
     1
  2
*U5
 10
0.0
 20
0.0
 30
0.0
  0
POINT
  5
72B
  8
DEFPOINTS
 62
     0
 10
42.2736231075644895
 20
13.7486057101416392
 30
0.0
  0
POINT
  5
72C
  8
DEFPOINTS
 62
     0
 10
42.2736231075644895
 20
10.9986057101416304
 30
0.0
  0
POINT
  5
72D
  8
DEFPOINTS
 62
     0
 10
43.5639451013660377
 20
10.9986057101416304
 30
0.0
  0
ENDBLK
  5
293
  8
0
  0
BLOCK
  8
0
 62
     1
  2
*U5
 70
     1
 10
0.0
 20
0.0
 30
0.0
  3
*U5
  1

  0
TEXT
  5
9F7
  8
0
 62
     0
 10
43.3839451013660522
 20
12.2986057101416204
 30
0.0
 40
0.15
  1
2.75
 41
0.8
  0
ENDBLK
  5
9F9
  8
0
 62
     1
  0
BLOCK
  8
0
  2
*D6
 70
     1
 10
0.0
 20
0.0
 30
0.0
  3
*D6
  1

  0
LINE
  5
738
  8
0
 62
     0
 10
34.4336077113168031
 20
13.9351327039461204
 30
0.0
 11
34.6336077113168201
 21
13.9351327039461204
 31
0.0
  0
LINE
  5
739
  8
0
 62
     0
 10
34.6336077113168201
 20
13.9351327039461204
 30
0.0
 11
34.8413984396882697
 21
13.7528244286657308
 31
0.0
  0
INSERT
  5
73A
  8
0
 62
     1
  2
*U7
 10
0.0
 20
0.0
 30
0.0
  0
SOLID
  5
73B
  8
0
 62
     0
 10
34.8633821335157634
 20
13.7778809311513299
 30
0.0
 11
34.8194147458607901
 21
13.7277679261801406
 31
0.0
 12
34.9917374546018465
 22
13.6209222657008393
 32
0.0
 13
34.9917374546018465
 23
13.6209222657008393
 33
0.0
  0
LINE
  5
73C
  8
0
 62
     0
 10
35.1206231075647111
 20
13.3736057101417405
 30
0.0
 11
35.4266231075646871
 21
13.3736057101417298
 31
0.0
  0
LINE
  5
73D
  8
0
 62
     0
 10
35.2736231075647098
 20
13.2206057101417294
 30
0.0
 11
35.2736231075647027
 21
13.5266057101417303
 31
0.0
  0
POINT
  5
73E
  8
DEFPOINTS
 62
     0
 10
34.9917374546018465
 20
13.6209222657008393
 30
0.0
  0
POINT
  5
73F
  8
DEFPOINTS
 62
     0
 10
35.2736231075647027
 20
13.3736057101417298
 30
0.0
  0
ENDBLK
  5
2AE
  8
0
  0
BLOCK
  8
0
 62
     1
  2
*U7
 70
     1
 10
0.0
 20
0.0
 30
0.0
  3
*U7
  1

  0
TEXT
  5
9FF
  8
0
 62
     0
 10
33.1036077113167977
 20
13.8851327039461196
 30
0.0
 40
0.15
  1
R0.38 4 plcs
 41
0.8
  0
ENDBLK
  5
A01
  8
0
 62
     1
  0
BLOCK
  8
0
  2
*D8
 70
     1
 10
0.0
 20
0.0
 30
0.0
  3
*D8
  1

  0
LINE
  5
35D
  8
0
 62
     0
 10
52.4220867939972734
 20
11.7562401308146907
 30
0.0
 11
52.4220867939972734
 21
10.5135716958276202
 31
0.0
  0
LINE
  5
35E
  8
0
 62
     0
 10
58.7299380287144501
 20
11.7562401308146907
 30
0.0
 11
58.7299380287144501
 21
10.5135716958276202
 31
0.0
  0
LINE
  5
35F
  8
0
 62
     0
 10
52.5158367939972521
 20
10.5885716958276195
 30
0.0
 11
55.1047624113558427
 21
10.5885716958276195
 31
0.0
  0
LINE
  5
360
  8
0
 62
     0
 10
58.6361880287144572
 20
10.5885716958276195
 30
0.0
 11
56.0472624113558382
 21
10.5885716958276195
 31
0.0
  0
SOLID
  5
361
  8
0
 62
     0
 10
52.5158367939972521
 20
10.6041966958276195
 30
0.0
 11
52.5158367939972521
 21
10.5729466958276195
 31
0.0
 12
52.4220867939972734
 22
10.5885716958276195
 32
0.0
 13
52.4220867939972734
 23
10.5885716958276195
 33
0.0
  0
SOLID
  5
362
  8
0
 62
     0
 10
58.6361880287144572
 20
10.6041966958276195
 30
0.0
 11
58.6361880287144572
 21
10.5729466958276195
 31
0.0
 12
58.7299380287144501
 22
10.5885716958276195
 32
0.0
 13
58.7299380287144501
 23
10.5885716958276195
 33
0.0
  0
INSERT
  5
363
  8
0
 62
     1
  2
*U9
 10
0.0
 20
0.0
 30
0.0
  0
POINT
  5
364
  8
DEFPOINTS
 62
     0
 10
52.4220867939972734
 20
11.8187401308146907
 30
0.0
  0
POINT
  5
365
  8
DEFPOINTS
 62
     0
 10
58.7299380287144501
 20
11.8187401308146907
 30
0.0
  0
POINT
  5
366
  8
DEFPOINTS
 62
     0
 10
58.7299380287144501
 20
10.5885716958276195
 30
0.0
  0
ENDBLK
  5
35C
  8
0
  0
BLOCK
  8
0
 62
     1
  2
*U9
 70
     1
 10
0.0
 20
0.0
 30
0.0
  3
*U9
  1

  0
TEXT
  5
9E3
  8
0
 62
     0
 10
55.1947624113558533
 20
10.5416966958276195
 30
0.0
 40
0.09375
  1
6.3079±0.0010
 41
0.8
  0
ENDBLK
  5
9E5
  8
0
 62
     1
  0
BLOCK
  8
0
  2
*D10
 70
     1
 10
0.0
 20
0.0
 30
0.0
  3
*D10
  1

  0
LINE
  5
36B
  8
0
 62
     0
 10
55.1126422891573426
 20
11.7738085887565607
 30
0.0
 11
55.1126422891573426
 21
12.1397628838250693
 31
0.0
  0
LINE
  5
36C
  8
0
 62
     0
 10
54.966989802563532
 20
11.7738085887565607
 30
0.0
 11
54.966989802563532
 21
12.1397628838250693
 31
0.0
  0
LINE
  5
36D
  8
0
 62
     0
 10
55.2063922891573498
 20
12.06476288382507
 30
0.0
 11
55.3001422891573498
 21
12.06476288382507
 31
0.0
  0
LINE
  5
36E
  8
0
 62
     0
 10
54.8732398025635604
 20
12.06476288382507
 30
0.0
 11
54.779489802563532
 21
12.06476288382507
 31
0.0
  0
SOLID
  5
36F
  8
0
 62
     0
 10
55.2063922891573498
 20
12.08038788382507
 30
0.0
 11
55.2063922891573498
 21
12.04913788382507
 31
0.0
 12
55.1126422891573426
 22
12.06476288382507
 32
0.0
 13
55.1126422891573426
 23
12.06476288382507
 33
0.0
  0
SOLID
  5
370
  8
0
 62
     0
 10
54.8732398025635604
 20
12.08038788382507
 30
0.0
 11
54.8732398025635604
 21
12.04913788382507
 31
0.0
 12
54.966989802563532
 22
12.06476288382507
 32
0.0
 13
54.966989802563532
 23
12.06476288382507
 33
0.0
  0
INSERT
  5
371
  8
0
 62
     1
  2
*U11
 10
0.0
 20
0.0
 30
0.0
  0
POINT
  5
372
  8
DEFPOINTS
 62
     0
 10
55.1126422891573426
 20
11.7113085887565607
 30
0.0
  0
POINT
  5
373
  8
DEFPOINTS
 62
     0
 10
54.966989802563532
 20
11.7113085887565607
 30
0.0
  0
POINT
  5
374
  8
DEFPOINTS
 62
     0
 10
54.966989802563532
 20
12.06476288382507
 30
0.0
  0
ENDBLK
  5
36A
  8
0
  0
BLOCK
  8
0
 62
     1
  2
*U11
 70
     1
 10
0.0
 20
0.0
 30
0.0
  3
*U11
  1

  0
TEXT
  5
9E7
  8
0
 62
     0
 10
53.9519898025635314
 20
12.01788788382507
 30
0.0
 40
0.09375
  1
0.1457±0.0010
 41
0.8
  0
ENDBLK
  5
9E9
  8
0
 62
     1
  0
BLOCK
  8
0
 62
     1
  2
A$C1FC58B4A
 70
     0
 10
0.0
 20
0.0
 30
0.0
  3
A$C1FC58B4A
  1

  0
CIRCLE
  5
391
  8
0
 62
     1
 10
0.1405001269069999
 20
0.1404999047732645
 30
0.0
 40
0.1405
  0
ENDBLK
  5
395
  8
0
 62
     1
  0
BLOCK
  8
0
 62
     1
  2
*D13
 70
     1
 10
0.0
 20
0.0
 30
0.0
  3
*D13
  1

  0
LINE
  5
75E
  8
0
 62
     0
 10
59.1373928176661323
 20
11.6852657286163701
 30
0.0
 11
59.1373928176661323
 21
10.6305595745337094
 31
0.0
  0
LINE
  5
75F
  8
0
 62
     0
 10
63.6373928176661181
 20
11.6852657286163701
 30
0.0
 11
63.6373928176661181
 21
10.6305595745337094
 31
0.0
  0
LINE
  5
760
  8
0
 62
     0
 10
59.3373928176661209
 20
10.7055595745337104
 30
0.0
 11
61.1273928176661272
 21
10.7055595745337104
 31
0.0
  0
LINE
  5
761
  8
0
 62
     0
 10
63.4373928176661224
 20
10.7055595745337104
 30
0.0
 11
61.6473928176661232
 21
10.7055595745337104
 31
0.0
  0
SOLID
  5
762
  8
0
 62
     0
 10
59.3373928176661209
 20
10.7388929078670401
 30
0.0
 11
59.3373928176661209
 21
10.6722262412003701
 31
0.0
 12
59.1373928176661323
 22
10.7055595745337104
 32
0.0
 13
59.1373928176661323
 23
10.7055595745337104
 33
0.0
  0
SOLID
  5
763
  8
0
 62
     0
 10
63.4373928176661224
 20
10.7388929078670401
 30
0.0
 11
63.4373928176661224
 21
10.6722262412003701
 31
0.0
 12
63.6373928176661181
 22
10.7055595745337104
 32
0.0
 13
63.6373928176661181
 23
10.7055595745337104
 33
0.0
  0
INSERT
  5
764
  8
0
 62
     1
  2
*U14
 10
0.0
 20
0.0
 30
0.0
  0
POINT
  5
765
  8
DEFPOINTS
 62
     0
 10
59.1373928176661323
 20
11.8727657286163701
 30
0.0
  0
POINT
  5
766
  8
DEFPOINTS
 62
     0
 10
63.6373928176661181
 20
11.8727657286163701
 30
0.0
  0
POINT
  5
767
  8
DEFPOINTS
 62
     0
 10
63.6373928176661181
 20
10.7055595745337104
 30
0.0
  0
ENDBLK
  5
3BF
  8
0
 62
     1
  0
BLOCK
  8
0
 62
     1
  2
*U14
 70
     1
 10
0.0
 20
0.0
 30
0.0
  3
*U14
  1

  0
TEXT
  5
A07
  8
0
 62
     0
 10
61.2173928176661235
 20
10.6305595745337094
 30
0.0
 40
0.15
  1
4.50
 41
0.8
  0
ENDBLK
  5
A09
  8
0
 62
     1
  0
BLOCK
  8
0
 62
     1
  2
*D15
 70
     1
 10
0.0
 20
0.0
 30
0.0
  3
*D15
  1

  0
LINE
  5
74A
  8
0
 62
     0
 10
61.5748928176661465
 20
15.6227657286163808
 30
0.0
 11
65.2107280530417341
 21
15.6227657286163808
 31
0.0
  0
LINE
  5
74B
  8
0
 62
     0
 10
63.8248928176661465
 20
11.8727657286163701
 30
0.0
 11
65.2107280530417341
 21
11.8727657286163701
 31
0.0
  0
LINE
  5
74C
  8
0
 62
     0
 10
65.1357280530417313
 20
15.4227657286163797
 30
0.0
 11
65.1357280530417313
 21
13.9127657286163799
 31
0.0
  0
LINE
  5
74D
  8
0
 62
     0
 10
65.1357280530417313
 20
12.0727657286163694
 30
0.0
 11
65.1357280530417313
 21
13.5827657286163799
 31
0.0
  0
SOLID
  5
74E
  8
0
 62
     0
 10
65.1023947197083999
 20
15.4227657286163797
 30
0.0
 11
65.1690613863750485
 21
15.4227657286163797
 31
0.0
 12
65.1357280530417313
 22
15.6227657286163808
 32
0.0
 13
65.1357280530417313
 23
15.6227657286163808
 33
0.0
  0
SOLID
  5
74F
  8
0
 62
     0
 10
65.1023947197083999
 20
12.0727657286163694
 30
0.0
 11
65.1690613863750485
 21
12.0727657286163694
 31
0.0
 12
65.1357280530417313
 22
11.8727657286163701
 32
0.0
 13
65.1357280530417313
 23
11.8727657286163701
 33
0.0
  0
INSERT
  5
750
  8
0
 62
     1
  2
*U16
 10
0.0
 20
0.0
 30
0.0
  0
POINT
  5
751
  8
DEFPOINTS
 62
     0
 10
61.3873928176661465
 20
15.6227657286163808
 30
0.0
  0
POINT
  5
752
  8
DEFPOINTS
 62
     0
 10
63.6373928176661607
 20
11.8727657286163701
 30
0.0
  0
POINT
  5
753
  8
DEFPOINTS
 62
     0
 10
65.1357280530417313
 20
11.8727657286163701
 30
0.0
  0
ENDBLK
  5
3D9
  8
0
 62
     1
  0
BLOCK
  8
0
 62
     1
  2
*U16
 70
     1
 10
0.0
 20
0.0
 30
0.0
  3
*U16
  1

  0
TEXT
  5
A03
  8
0
 62
     0
 10
64.9557280530417103
 20
13.6727657286163602
 30
0.0
 40
0.15
  1
3.75
 41
0.8
  0
ENDBLK
  5
A05
  8
0
 62
     1
  0
BLOCK
  8
0
 62
     1
  2
*D17
 70
     1
 10
0.0
 20
0.0
 30
0.0
  3
*D17
  1

  0
LINE
  5
428
  8
0
 62
     0
 10
61.3873928176661181
 20
15.6852657286163701
 30
0.0
 11
61.3873928176661181
 21
16.4459569753112014
 31
0.0
  0
LINE
  5
429
  8
0
 62
     0
 10
63.6373928176661181
 20
11.9352657286163701
 30
0.0
 11
63.6373928176661181
 21
16.4459569753112014
 31
0.0
  0
LINE
  5
42A
  8
0
 62
     0
 10
61.4811428176661323
 20
16.3709569753111985
 30
0.0
 11
62.3098928176661175
 21
16.3709569753111985
 31
0.0
  0
LINE
  5
42B
  8
0
 62
     0
 10
63.5436428176661323
 20
16.3709569753111985
 30
0.0
 11
62.7148928176661187
 21
16.3709569753111985
 31
0.0
  0
SOLID
  5
42C
  8
0
 62
     0
 10
61.4811428176661323
 20
16.3865819753111985
 30
0.0
 11
61.4811428176661323
 21
16.3553319753111985
 31
0.0
 12
61.3873928176661181
 22
16.3709569753111985
 32
0.0
 13
61.3873928176661181
 23
16.3709569753111985
 33
0.0
  0
SOLID
  5
42D
  8
0
 62
     0
 10
63.5436428176661323
 20
16.3865819753111985
 30
0.0
 11
63.5436428176661323
 21
16.3553319753111985
 31
0.0
 12
63.6373928176661181
 22
16.3709569753111985
 32
0.0
 13
63.6373928176661181
 23
16.3709569753111985
 33
0.0
  0
INSERT
  5
42E
  8
0
 62
     1
  2
*U18
 10
0.0
 20
0.0
 30
0.0
  0
POINT
  5
42F
  8
DEFPOINTS
 62
     0
 10
61.3873928176661181
 20
15.6227657286163701
 30
0.0
  0
POINT
  5
430
  8
DEFPOINTS
 62
     0
 10
63.6373928176661181
 20
11.8727657286163701
 30
0.0
  0
POINT
  5
431
  8
DEFPOINTS
 62
     0
 10
63.6373928176661181
 20
16.3709569753111985
 30
0.0
  0
ENDBLK
  5
3F3
  8
0
 62
     1
  0
BLOCK
  8
0
 62
     1
  2
*U18
 70
     1
 10
0.0
 20
0.0
 30
0.0
  3
*U18
  1

  0
TEXT
  5
9EB
  8
0
 62
     0
 10
62.3998928176661281
 20
16.3240819753111985
 30
0.0
 40
0.09375
  1
2.25
 41
0.8
  0
ENDBLK
  5
9ED
  8
0
 62
     1
  0
BLOCK
  8
0
 62
     1
  2
*D19
 70
     1
 10
0.0
 20
0.0
 30
0.0
  3
*D19
  1

  0
LINE
  5
62D
  8
0
 62
     0
 10
61.8203437157234603
 20
16.0762509229983088
 30
0.0
 11
61.7203437157234731
 21
16.0762509229983088
 31
0.0
  0
LINE
  5
62E
  8
0
 62
     0
 10
61.7203437157234731
 20
16.0762509229983088
 30
0.0
 11
61.529725587204382
 21
15.8166255561092193
 31
0.0
  0
INSERT
  5
62F
  8
0
 62
     1
  2
*U20
 10
0.0
 20
0.0
 30
0.0
  0
SOLID
  5
630
  8
0
 62
     0
 10
61.5162910877246389
 20
15.8264892269019004
 30
0.0
 11
61.5431600866841322
 21
15.8067618853165506
 31
0.0
 12
61.4705435624483627
 22
15.7360185592307005
 32
0.0
 13
61.4705435624483627
 23
15.7360185592307005
 33
0.0
  0
LINE
  5
631
  8
0
 62
     0
 10
61.2343928176661265
 20
15.6227657286163701
 30
0.0
 11
61.5403928176661026
 21
15.6227657286163701
 31
0.0
  0
LINE
  5
632
  8
0
 62
     0
 10
61.387392817666111
 20
15.4697657286163697
 30
0.0
 11
61.387392817666111
 21
15.7757657286163706
 31
0.0
  0
POINT
  5
633
  8
DEFPOINTS
 62
     0
 10
61.4705435624483627
 20
15.7360185592307005
 30
0.0
  0
POINT
  5
634
  8
DEFPOINTS
 62
     0
 10
61.3042420728838522
 20
15.5095128980020203
 30
0.0
  0
ENDBLK
  5
44A
  8
0
 62
     1
  0
BLOCK
  8
0
 62
     1
  2
*U20
 70
     1
 10
0.0
 20
0.0
 30
0.0
  3
*U20
  1

  0
TEXT
  5
9EF
  8
0
 62
     0
 10
61.9103437157234708
 20
16.0262509229983117
 30
0.0
 40
0.15
  1
\U+22050.281 3 plcs
 41
0.8
  0
ENDBLK
  5
9F1
  8
0
 62
     1
  0
BLOCK
  8
0
 62
     1
  2
*D21
 70
     1
 10
0.0
 20
0.0
 30
0.0
  3
*D21
  1

  0
LINE
  5
834
  8
0
 62
     0
 10
63.6373928176661181
 20
11.6852657286163701
 30
0.0
 11
63.6373928176661181
 21
11.31810180486527
 31
0.0
  0
LINE
  5
835
  8
0
 62
     0
 10
61.387392817666111
 20
15.4352657286163701
 30
0.0
 11
61.387392817666111
 21
11.31810180486527
 31
0.0
  0
LINE
  5
836
  8
0
 62
     0
 10
63.4373928176661224
 20
11.3931018048652692
 30
0.0
 11
62.7823928176661212
 21
11.3931018048652692
 31
0.0
  0
LINE
  5
837
  8
0
 62
     0
 10
61.5873928176661281
 20
11.3931018048652692
 30
0.0
 11
62.2423928176661221
 21
11.3931018048652692
 31
0.0
  0
SOLID
  5
838
  8
0
 62
     0
 10
63.4373928176661224
 20
11.4264351381986007
 30
0.0
 11
63.4373928176661224
 21
11.3597684715319307
 31
0.0
 12
63.6373928176661181
 22
11.3931018048652692
 32
0.0
 13
63.6373928176661181
 23
11.3931018048652692
 33
0.0
  0
SOLID
  5
839
  8
0
 62
     0
 10
61.5873928176661281
 20
11.4264351381986007
 30
0.0
 11
61.5873928176661281
 21
11.3597684715319307
 31
0.0
 12
61.387392817666111
 22
11.3931018048652692
 32
0.0
 13
61.387392817666111
 23
11.3931018048652692
 33
0.0
  0
INSERT
  5
83A
  8
0
 62
     1
  2
*U22
 10
0.0
 20
0.0
 30
0.0
  0
POINT
  5
83B
  8
DEFPOINTS
 62
     0
 10
63.6373928176661181
 20
11.8727657286163701
 30
0.0
  0
POINT
  5
83C
  8
DEFPOINTS
 62
     0
 10
61.387392817666111
 20
15.6227657286163701
 30
0.0
  0
POINT
  5
83D
  8
DEFPOINTS
 62
     0
 10
61.387392817666111
 20
11.3931018048652692
 30
0.0
  0
ENDBLK
  5
642
  8
0
 62
     1
  0
BLOCK
  8
0
 62
     1
  2
*U22
 70
     1
 10
0.0
 20
0.0
 30
0.0
  3
*U22
  1

  0
TEXT
  5
A1B
  8
0
 62
     0
 10
62.3323928176661184
 20
11.3181018048652593
 30
0.0
 40
0.15
  1
2.25
 41
0.8
  0
ENDBLK
  5
A1D
  8
0
 62
     1
  0
BLOCK
  8
0
 62
     1
  2
*D23
 70
     1
 10
0.0
 20
0.0
 30
0.0
  3
*D23
  1

  0
LINE
  5
6D0
  8
0
 62
     0
 10
59.8569381689512312
 20
14.5536273982971203
 30
0.0
 11
59.9569381689512326
 21
14.5536273982971203
 31
0.0
  0
LINE
  5
6D1
  8
0
 62
     0
 10
59.9569381689512326
 20
14.5536273982971203
 30
0.0
 11
60.2078896049012684
 21
13.9842961877090204
 31
0.0
  0
INSERT
  5
6D2
  8
0
 62
     1
  2
*U24
 10
0.0
 20
0.0
 30
0.0
  0
SOLID
  5
6D3
  8
0
 62
     0
 10
60.2231404509871879
 20
13.9910184991747109
 30
0.0
 11
60.1926387588153702
 21
13.9775738762433299
 31
0.0
 12
60.2482234736954112
 22
13.8927911111935796
 32
0.0
 13
60.2482234736954112
 23
13.8927911111935796
 33
0.0
  0
LINE
  5
6D4
  8
0
 62
     0
 10
60.2968928176661265
 20
13.4352657286163595
 30
0.0
 11
60.6028928176661026
 21
13.4352657286163701
 31
0.0
  0
LINE
  5
6D5
  8
0
 62
     0
 10
60.449892817666111
 20
13.2822657286163697
 30
0.0
 11
60.449892817666111
 21
13.58826572861636
 31
0.0
  0
POINT
  5
6D6
  8
DEFPOINTS
 62
     0
 10
60.2482234736954112
 20
13.8927911111935796
 30
0.0
  0
POINT
  5
6D7
  8
DEFPOINTS
 62
     0
 10
60.6515621616368108
 20
12.9777403460391501
 30
0.0
  0
ENDBLK
  5
669
  8
0
 62
     1
  0
BLOCK
  8
0
 62
     1
  2
*U24
 70
     1
 10
0.0
 20
0.0
 30
0.0
  3
*U24
  1

  0
TEXT
  5
9F3
  8
0
 62
     0
 10
59.266938168951242
 20
14.4786273982971192
 30
0.0
 40
0.15
  1
\U+22051.000
 41
0.8
  0
ENDBLK
  5
9F5
  8
0
 62
     1
  0
BLOCK
  8
0
 62
     1
  2
*D25
 70
     1
 10
0.0
 20
0.0
 30
0.0
  3
*D25
  1

  0
LINE
  5
790
  8
0
 62
     0
 10
61.5748928176661465
 20
15.6227657286163808
 30
0.0
 11
64.6194395485951674
 21
15.6227657286163808
 31
0.0
  0
LINE
  5
791
  8
0
 62
     0
 10
60.6373928176661465
 20
13.4352657286163701
 30
0.0
 11
64.6194395485951674
 21
13.4352657286163701
 31
0.0
  0
LINE
  5
792
  8
0
 62
     0
 10
64.5444395485951787
 20
15.4227657286163797
 30
0.0
 11
64.5444395485951787
 21
14.6940157286163604
 31
0.0
  0
LINE
  5
793
  8
0
 62
     0
 10
64.5444395485951787
 20
13.6352657286163694
 30
0.0
 11
64.5444395485951787
 21
14.3640157286163799
 31
0.0
  0
SOLID
  5
794
  8
0
 62
     0
 10
64.5111062152618331
 20
15.4227657286163797
 30
0.0
 11
64.577772881928496
 21
15.4227657286163797
 31
0.0
 12
64.5444395485951787
 22
15.6227657286163808
 32
0.0
 13
64.5444395485951787
 23
15.6227657286163808
 33
0.0
  0
SOLID
  5
795
  8
0
 62
     0
 10
64.5111062152618331
 20
13.6352657286163694
 30
0.0
 11
64.577772881928496
 21
13.6352657286163694
 31
0.0
 12
64.5444395485951787
 22
13.4352657286163701
 32
0.0
 13
64.5444395485951787
 23
13.4352657286163701
 33
0.0
  0
INSERT
  5
796
  8
0
 62
     1
  2
*U26
 10
0.0
 20
0.0
 30
0.0
  0
POINT
  5
797
  8
DEFPOINTS
 62
     0
 10
61.3873928176661465
 20
15.6227657286163808
 30
0.0
  0
POINT
  5
798
  8
DEFPOINTS
 62
     0
 10
60.4498928176661465
 20
13.4352657286163701
 30
0.0
  0
POINT
  5
799
  8
DEFPOINTS
 62
     0
 10
64.5444395485951787
 20
13.4352657286163701
 30
0.0
  0
ENDBLK
  5
687
  8
0
 62
     1
  0
BLOCK
  8
0
 62
     1
  2
*U26
 70
     1
 10
0.0
 20
0.0
 30
0.0
  3
*U26
  1

  0
TEXT
  5
A0B
  8
0
 62
     0
 10
64.3244395485951515
 20
14.4540157286163495
 30
0.0
 40
0.15
  1
2.188
 41
0.8
  0
ENDBLK
  5
A0D
  8
0
 62
     1
  0
BLOCK
  8
0
 62
     1
  2
*D27
 70
     1
 10
0.0
 20
0.0
 30
0.0
  3
*D27
  1

  0
LINE
  5
83E
  8
0
 62
     0
 10
60.4498928176661181
 20
13.2477657286163701
 30
0.0
 11
60.4498928176661181
 21
11.31810180486527
 31
0.0
  0
LINE
  5
83F
  8
0
 62
     0
 10
61.387392817666111
 20
11.5806018048652604
 30
0.0
 11
61.387392817666111
 21
11.4681018048652597
 31
0.0
  0
LINE
  5
840
  8
0
 62
     0
 10
60.2498928176661224
 20
11.3931018048652692
 30
0.0
 11
60.0498928176661195
 21
11.3931018048652692
 31
0.0
  0
LINE
  5
841
  8
0
 62
     0
 10
61.5873928176661281
 20
11.3931018048652692
 30
0.0
 11
61.7873928176661167
 21
11.3931018048652692
 31
0.0
  0
SOLID
  5
842
  8
0
 62
     0
 10
60.2498928176661224
 20
11.4264351381986007
 30
0.0
 11
60.2498928176661224
 21
11.3597684715319307
 31
0.0
 12
60.4498928176661181
 22
11.3931018048652692
 32
0.0
 13
60.4498928176661181
 23
11.3931018048652692
 33
0.0
  0
SOLID
  5
843
  8
0
 62
     0
 10
61.5873928176661281
 20
11.4264351381986007
 30
0.0
 11
61.5873928176661281
 21
11.3597684715319307
 31
0.0
 12
61.387392817666111
 22
11.3931018048652692
 32
0.0
 13
61.387392817666111
 23
11.3931018048652692
 33
0.0
  0
INSERT
  5
844
  8
0
 62
     1
  2
*U28
 10
0.0
 20
0.0
 30
0.0
  0
POINT
  5
845
  8
DEFPOINTS
 62
     0
 10
60.4498928176661181
 20
13.4352657286163701
 30
0.0
  0
POINT
  5
846
  8
DEFPOINTS
 62
     0
 10
61.387392817666111
 20
11.3931018048652692
 30
0.0
  0
POINT
  5
847
  8
DEFPOINTS
 62
     0
 10
61.387392817666111
 20
11.3931018048652692
 30
0.0
  0
ENDBLK
  5
6DB
  8
0
 62
     1
  0
BLOCK
  8
0
 62
     1
  2
*U28
 70
     1
 10
0.0
 20
0.0
 30
0.0
  3
*U28
  1

  0
TEXT
  5
A1F
  8
0
 62
     0
 10
60.6886428176661283
 20
11.3181018048652593
 30
0.0
 40
0.15
  1
0.938
 41
0.8
  0
ENDBLK
  5
A21
  8
0
 62
     1
  0
BLOCK
  8
0
  2
*D29
 70
     1
 10
0.0
 20
0.0
 30
0.0
  3
*D29
  1

  0
LINE
  5
7A6
  8
0
 62
     0
 10
34.8986231075644895
 20
13.5611057101416304
 30
0.0
 11
34.8986231075644895
 21
14.3223148242001006
 31
0.0
  0
LINE
  5
7A7
  8
0
 62
     0
 10
42.6486231075644824
 20
13.5611057101416304
 30
0.0
 11
42.6486231075644824
 21
14.3223148242001006
 31
0.0
  0
LINE
  5
7A8
  8
0
 62
     0
 10
35.0986231075644781
 20
14.2473148242000995
 30
0.0
 11
38.5036231075644721
 21
14.2473148242000995
 31
0.0
  0
LINE
  5
7A9
  8
0
 62
     0
 10
42.4486231075644724
 20
14.2473148242000995
 30
0.0
 11
39.0436231075644784
 21
14.2473148242000995
 31
0.0
  0
SOLID
  5
7AA
  8
0
 62
     0
 10
35.0986231075644781
 20
14.2806481575334292
 30
0.0
 11
35.0986231075644781
 21
14.2139814908667699
 31
0.0
 12
34.8986231075644895
 22
14.2473148242000995
 32
0.0
 13
34.8986231075644895
 23
14.2473148242000995
 33
0.0
  0
SOLID
  5
7AB
  8
0
 62
     0
 10
42.4486231075644724
 20
14.2806481575334292
 30
0.0
 11
42.4486231075644724
 21
14.2139814908667699
 31
0.0
 12
42.6486231075644824
 22
14.2473148242000995
 32
0.0
 13
42.6486231075644824
 23
14.2473148242000995
 33
0.0
  0
INSERT
  5
7AC
  8
0
 62
     1
  2
*U30
 10
0.0
 20
0.0
 30
0.0
  0
POINT
  5
7AD
  8
DEFPOINTS
 62
     0
 10
34.8986231075644895
 20
13.3736057101416304
 30
0.0
  0
POINT
  5
7AE
  8
DEFPOINTS
 62
     0
 10
42.6486231075644824
 20
13.3736057101416304
 30
0.0
  0
POINT
  5
7AF
  8
DEFPOINTS
 62
     0
 10
42.6486231075644824
 20
14.2473148242000995
 30
0.0
  0
ENDBLK
  5
7B0
  8
0
  0
BLOCK
  8
0
 62
     1
  2
*U30
 70
     1
 10
0.0
 20
0.0
 30
0.0
  3
*U30
  1

  0
TEXT
  5
A0F
  8
0
 62
     0
 10
38.5936231075644827
 20
14.1723148242001002
 30
0.0
 40
0.15
  1
7.75
 41
0.8
  0
ENDBLK
  5
A11
  8
0
 62
     1
  0
BLOCK
  8
0
  2
*D31
 70
     1
 10
0.0
 20
0.0
 30
0.0
  3
*D31
  1

  0
LINE
  5
7B3
  8
0
 62
     0
 10
42.4611231075644895
 20
13.7486057101416392
 30
0.0
 11
43.6389451013660619
 21
13.7486057101416392
 31
0.0
  0
LINE
  5
7B4
  8
0
 62
     0
 10
42.4611231075644895
 20
10.9986057101416304
 30
0.0
 11
43.6389451013660619
 21
10.9986057101416304
 31
0.0
  0
LINE
  5
7B5
  8
0
 62
     0
 10
43.5639451013660377
 20
13.5486057101416399
 30
0.0
 11
43.5639451013660377
 21
12.5386057101416295
 31
0.0
  0
LINE
  5
7B6
  8
0
 62
     0
 10
43.5639451013660377
 20
11.1986057101416296
 30
0.0
 11
43.5639451013660377
 21
12.2086057101416401
 31
0.0
  0
SOLID
  5
7B7
  8
0
 62
     0
 10
43.5306117680327134
 20
13.5486057101416399
 30
0.0
 11
43.5972784346993905
 21
13.5486057101416399
 31
0.0
 12
43.5639451013660377
 22
13.7486057101416392
 32
0.0
 13
43.5639451013660377
 23
13.7486057101416392
 33
0.0
  0
SOLID
  5
7B8
  8
0
 62
     0
 10
43.5306117680327134
 20
11.1986057101416296
 30
0.0
 11
43.5972784346993905
 21
11.1986057101416296
 31
0.0
 12
43.5639451013660377
 22
10.9986057101416304
 32
0.0
 13
43.5639451013660377
 23
10.9986057101416304
 33
0.0
  0
INSERT
  5
7B9
  8
0
 62
     1
  2
*U32
 10
0.0
 20
0.0
 30
0.0
  0
POINT
  5
7BA
  8
DEFPOINTS
 62
     0
 10
42.2736231075644895
 20
13.7486057101416392
 30
0.0
  0
POINT
  5
7BB
  8
DEFPOINTS
 62
     0
 10
42.2736231075644895
 20
10.9986057101416304
 30
0.0
  0
POINT
  5
7BC
  8
DEFPOINTS
 62
     0
 10
43.5639451013660377
 20
10.9986057101416304
 30
0.0
  0
ENDBLK
  5
7BD
  8
0
  0
BLOCK
  8
0
 62
     1
  2
*U32
 70
     1
 10
0.0
 20
0.0
 30
0.0
  3
*U32
  1

  0
TEXT
  5
A13
  8
0
 62
     0
 10
43.3839451013660522
 20
12.2986057101416204
 30
0.0
 40
0.15
  1
2.75
 41
0.8
  0
ENDBLK
  5
A15
  8
0
 62
     1
  0
BLOCK
  8
0
  2
*D33
 70
     1
 10
0.0
 20
0.0
 30
0.0
  3
*D33
  1

  0
LINE
  5
7C0
  8
0
 62
     0
 10
34.4336077113168031
 20
13.9351327039461204
 30
0.0
 11
34.6336077113168201
 21
13.9351327039461204
 31
0.0
  0
LINE
  5
7C1
  8
0
 62
     0
 10
34.6336077113168201
 20
13.9351327039461204
 30
0.0
 11
34.8413984396882697
 21
13.7528244286657308
 31
0.0
  0
INSERT
  5
7C2
  8
0
 62
     1
  2
*U34
 10
0.0
 20
0.0
 30
0.0
  0
SOLID
  5
7C3
  8
0
 62
     0
 10
34.8633821335157634
 20
13.7778809311513299
 30
0.0
 11
34.8194147458607901
 21
13.7277679261801406
 31
0.0
 12
34.9917374546018465
 22
13.6209222657008393
 32
0.0
 13
34.9917374546018465
 23
13.6209222657008393
 33
0.0
  0
LINE
  5
7C4
  8
0
 62
     0
 10
35.1206231075647111
 20
13.3736057101417405
 30
0.0
 11
35.4266231075646871
 21
13.3736057101417298
 31
0.0
  0
LINE
  5
7C5
  8
0
 62
     0
 10
35.2736231075647098
 20
13.2206057101417294
 30
0.0
 11
35.2736231075647027
 21
13.5266057101417303
 31
0.0
  0
POINT
  5
7C6
  8
DEFPOINTS
 62
     0
 10
34.9917374546018465
 20
13.6209222657008393
 30
0.0
  0
POINT
  5
7C7
  8
DEFPOINTS
 62
     0
 10
35.2736231075647027
 20
13.3736057101417298
 30
0.0
  0
ENDBLK
  5
7C8
  8
0
  0
BLOCK
  8
0
 62
     1
  2
*U34
 70
     1
 10
0.0
 20
0.0
 30
0.0
  3
*U34
  1

  0
TEXT
  5
A17
  8
0
 62
     0
 10
33.1036077113167977
 20
13.8851327039461196
 30
0.0
 40
0.15
  1
R0.38 4 plcs
 41
0.8
  0
ENDBLK
  5
A19
  8
0
 62
     1
  0
BLOCK
  8
0
 62
     1
  2
*D35
 70
     1
 10
0.0
 20
0.0
 30
0.0
  3
*D35
  1

  0
LINE
  5
848
  8
0
 62
     0
 10
57.9262525754154112
 20
8.9152243778043481
 30
0.0
 11
57.9262525754154112
 21
9.6764334918628183
 31
0.0
  0
LINE
  5
849
  8
0
 62
     0
 10
65.6762525754154183
 20
8.9152243778043481
 30
0.0
 11
65.6762525754154183
 21
9.6764334918628183
 31
0.0
  0
LINE
  5
84A
  8
0
 62
     0
 10
58.1262525754154424
 20
9.6014334918628226
 30
0.0
 11
61.5312525754154223
 21
9.6014334918628226
 31
0.0
  0
LINE
  5
84B
  8
0
 62
     0
 10
65.4762525754154154
 20
9.6014334918628226
 30
0.0
 11
62.0712525754154214
 21
9.6014334918628226
 31
0.0
  0
SOLID
  5
84C
  8
0
 62
     0
 10
58.1262525754154424
 20
9.6347668251961576
 30
0.0
 11
58.1262525754154424
 21
9.5681001585294876
 31
0.0
 12
57.9262525754154112
 22
9.6014334918628226
 32
0.0
 13
57.9262525754154112
 23
9.6014334918628226
 33
0.0
  0
SOLID
  5
84D
  8
0
 62
     0
 10
65.4762525754154154
 20
9.6347668251961576
 30
0.0
 11
65.4762525754154154
 21
9.5681001585294876
 31
0.0
 12
65.6762525754154183
 22
9.6014334918628226
 32
0.0
 13
65.6762525754154183
 23
9.6014334918628226
 33
0.0
  0
INSERT
  5
84E
  8
0
 62
     1
  2
*U36
 10
0.0
 20
0.0
 30
0.0
  0
POINT
  5
84F
  8
DEFPOINTS
 62
     0
 10
57.9262525754154112
 20
8.7277243778043481
 30
0.0
  0
POINT
  5
850
  8
DEFPOINTS
 62
     0
 10
65.6762525754154183
 20
8.7277243778043481
 30
0.0
  0
POINT
  5
851
  8
DEFPOINTS
 62
     0
 10
65.6762525754154183
 20
9.6014334918628226
 30
0.0
  0
ENDBLK
  5
7F3
  8
0
 62
     1
  0
BLOCK
  8
0
 62
     1
  2
*U36
 70
     1
 10
0.0
 20
0.0
 30
0.0
  3
*U36
  1

  0
TEXT
  5
A23
  8
0
 62
     0
 10
61.6212525754154115
 20
9.5264334918628197
 30
0.0
 40
0.15
  1
7.75
 41
0.8
  0
ENDBLK
  5
A25
  8
0
 62
     1
  0
BLOCK
  8
0
 62
     1
  2
*D37
 70
     1
 10
0.0
 20
0.0
 30
0.0
  3
*D37
  1

  0
LINE
  5
852
  8
0
 62
     0
 10
65.4887525754154467
 20
9.1027243778043552
 30
0.0
 11
66.6665745692170759
 21
9.1027243778043552
 31
0.0
  0
LINE
  5
853
  8
0
 62
     0
 10
65.4887525754154467
 20
6.3527243778043552
 30
0.0
 11
66.6665745692170759
 21
6.3527243778043561
 31
0.0
  0
LINE
  5
854
  8
0
 62
     0
 10
66.5915745692170731
 20
8.9027243778043577
 30
0.0
 11
66.5915745692170731
 21
7.8927243778043552
 31
0.0
  0
LINE
  5
855
  8
0
 62
     0
 10
66.5915745692170731
 20
6.5527243778043562
 30
0.0
 11
66.5915745692170731
 21
7.562724377804356
 31
0.0
  0
SOLID
  5
856
  8
0
 62
     0
 10
66.5582412358837701
 20
8.9027243778043577
 30
0.0
 11
66.6249079025504045
 21
8.9027243778043577
 31
0.0
 12
66.5915745692170731
 22
9.1027243778043552
 32
0.0
 13
66.5915745692170731
 23
9.1027243778043552
 33
0.0
  0
SOLID
  5
857
  8
0
 62
     0
 10
66.5582412358837701
 20
6.5527243778043562
 30
0.0
 11
66.6249079025504045
 21
6.5527243778043562
 31
0.0
 12
66.5915745692170731
 22
6.3527243778043561
 32
0.0
 13
66.5915745692170731
 23
6.3527243778043561
 33
0.0
  0
INSERT
  5
858
  8
0
 62
     1
  2
*U38
 10
0.0
 20
0.0
 30
0.0
  0
POINT
  5
859
  8
DEFPOINTS
 62
     0
 10
65.3012525754154467
 20
9.1027243778043552
 30
0.0
  0
POINT
  5
85A
  8
DEFPOINTS
 62
     0
 10
65.3012525754154467
 20
6.3527243778043552
 30
0.0
  0
POINT
  5
85B
  8
DEFPOINTS
 62
     0
 10
66.5915745692170731
 20
6.3527243778043561
 30
0.0
  0
ENDBLK
  5
800
  8
0
 62
     1
  0
BLOCK
  8
0
 62
     1
  2
*U38
 70
     1
 10
0.0
 20
0.0
 30
0.0
  3
*U38
  1

  0
TEXT
  5
A27
  8
0
 62
     0
 10
66.4115745692170236
 20
7.6527243778043319
 30
0.0
 40
0.15
  1
2.75
 41
0.8
  0
ENDBLK
  5
A29
  8
0
 62
     1
  0
BLOCK
  8
0
 62
     1
  2
*D39
 70
     1
 10
0.0
 20
0.0
 30
0.0
  3
*D39
  1

  0
LINE
  5
864
  8
0
 62
     0
 10
57.46123717916754
 20
9.2892513716087368
 30
0.0
 11
57.6612371791675287
 21
9.2892513716087368
 31
0.0
  0
LINE
  5
865
  8
0
 62
     0
 10
57.6612371791675287
 20
9.2892513716087368
 30
0.0
 11
57.8690279075389924
 21
9.1069430963283526
 31
0.0
  0
INSERT
  5
866
  8
0
 62
     1
  2
*U40
 10
0.0
 20
0.0
 30
0.0
  0
SOLID
  5
867
  8
0
 62
     0
 10
57.891011601366472
 20
9.1319995988139482
 30
0.0
 11
57.8470442137115128
 21
9.0818865938427606
 31
0.0
 12
58.0193669224525621
 22
8.9750409333634558
 32
0.0
 13
58.0193669224525621
 23
8.9750409333634558
 33
0.0
  0
LINE
  5
868
  8
0
 62
     0
 10
58.1482525754154125
 20
8.7277243778043463
 30
0.0
 11
58.454252575415417
 21
8.7277243778043463
 31
0.0
  0
LINE
  5
869
  8
0
 62
     0
 10
58.3012525754154112
 20
8.574724377804344
 30
0.0
 11
58.3012525754154112
 21
8.8807243778043414
 31
0.0
  0
POINT
  5
86A
  8
DEFPOINTS
 62
     0
 10
58.0193669224525621
 20
8.9750409333634558
 30
0.0
  0
POINT
  5
86B
  8
DEFPOINTS
 62
     0
 10
58.3012525754154112
 20
8.7277243778043463
 30
0.0
  0
ENDBLK
  5
80D
  8
0
 62
     1
  0
BLOCK
  8
0
 62
     1
  2
*U40
 70
     1
 10
0.0
 20
0.0
 30
0.0
  3
*U40
  1

  0
TEXT
  5
A2B
  8
0
 62
     0
 10
56.1312371791675417
 20
9.2392513716087343
 30
0.0
 40
0.15
  1
R0.38 4 plcs
 41
0.8
  0
ENDBLK
  5
A2D
  8
0
 62
     1
  0
BLOCK
  8
0
 62
     1
  2
*D41
 70
     1
 10
0.0
 20
0.0
 30
0.0
  3
*D41
  1

  0
LINE
  5
BD1
  8
0
 62
     0
 10
59.1373928176661323
 20
11.6727657286163709
 30
0.0
 11
59.1373928176661323
 21
10.9379352146118194
 31
0.0
  0
LINE
  5
BD2
  8
0
 62
     0
 10
63.6373928176661181
 20
11.6727657286163709
 30
0.0
 11
63.6373928176661181
 21
10.9379352146118194
 31
0.0
  0
LINE
  5
BD3
  8
0
 62
     0
 10
59.3873928176661181
 20
11.0379352146118208
 30
0.0
 11
61.1140594843327918
 21
11.0379352146118208
 31
0.0
  0
LINE
  5
BD4
  8
0
 62
     0
 10
63.3873928176661323
 20
11.0379352146118208
 30
0.0
 11
61.6607261509994515
 21
11.0379352146118208
 31
0.0
  0
SOLID
  5
BD5
  8
0
 62
     0
 10
59.3873928176661181
 20
11.0796018812784798
 30
0.0
 11
59.3873928176661181
 21
10.9962685479451494
 31
0.0
 12
59.1373928176661323
 22
11.0379352146118208
 32
0.0
 13
59.1373928176661323
 23
11.0379352146118208
 33
0.0
  0
SOLID
  5
BD6
  8
0
 62
     0
 10
63.3873928176661323
 20
11.0796018812784798
 30
0.0
 11
63.3873928176661323
 21
10.9962685479451494
 31
0.0
 12
63.6373928176661181
 22
11.0379352146118208
 32
0.0
 13
63.6373928176661181
 23
11.0379352146118208
 33
0.0
  0
INSERT
  5
BD7
  8
0
 62
     1
  2
*U42
 10
0.0
 20
0.0
 30
0.0
  0
POINT
  5
BD8
  8
DEFPOINTS
 62
     0
 10
59.1373928176661323
 20
11.8727657286163701
 30
0.0
  0
POINT
  5
BD9
  8
DEFPOINTS
 62
     0
 10
63.6373928176661181
 20
11.8727657286163701
 30
0.0
  0
POINT
  5
BDA
  8
DEFPOINTS
 62
     0
 10
63.6373928176661181
 20
11.0379352146118208
 30
0.0
  0
ENDBLK
  5
B12
  8
0
 62
     1
  0
BLOCK
  8
0
 62
     1
  2
*U42
 70
     1
 10
0.0
 20
0.0
 30
0.0
  3
*U42
  1

  0
TEXT
  5
E2C
  8
0
 62
     0
 10
61.2040594843328023
 20
10.9754352146118208
 30
0.0
 40
0.125
  1
4.500
 41
0.8
  0
ENDBLK
  5
E2E
  8
0
 62
     1
  0
BLOCK
  8
0
 62
     1
  2
*D43
 70
     1
 10
0.0
 20
0.0
 30
0.0
  3
*D43
  1

  0
LINE
  5
BE9
  8
0
 62
     0
 10
61.5873928176661565
 20
15.6278432067836004
 30
0.0
 11
65.2304387494753826
 21
15.6278432067836004
 31
0.0
  0
LINE
  5
BEA
  8
0
 62
     0
 10
63.8373928176661494
 20
11.8727657286163701
 30
0.0
 11
65.2304387494753826
 21
11.8727657286163701
 31
0.0
  0
LINE
  5
BEB
  8
0
 62
     0
 10
65.130438749475374
 20
15.3778432067835809
 30
0.0
 11
65.130438749475374
 21
13.9028044676999798
 31
0.0
  0
LINE
  5
BEC
  8
0
 62
     0
 10
65.130438749475374
 20
12.1227657286163701
 30
0.0
 11
65.130438749475374
 21
13.5978044676999801
 31
0.0
  0
SOLID
  5
BED
  8
0
 62
     0
 10
65.0887720828087168
 20
15.3778432067835809
 30
0.0
 11
65.1721054161420597
 21
15.3778432067835809
 31
0.0
 12
65.130438749475374
 22
15.6278432067836004
 32
0.0
 13
65.130438749475374
 23
15.6278432067836004
 33
0.0
  0
SOLID
  5
BEE
  8
0
 62
     0
 10
65.0887720828087168
 20
12.1227657286163701
 30
0.0
 11
65.1721054161420597
 21
12.1227657286163701
 31
0.0
 12
65.130438749475374
 22
11.8727657286163701
 32
0.0
 13
65.130438749475374
 23
11.8727657286163701
 33
0.0
  0
INSERT
  5
BEF
  8
0
 62
     1
  2
*U44
 10
0.0
 20
0.0
 30
0.0
  0
POINT
  5
BF0
  8
DEFPOINTS
 62
     0
 10
61.3873928176661465
 20
15.6278432067836004
 30
0.0
  0
POINT
  5
BF1
  8
DEFPOINTS
 62
     0
 10
63.6373928176661607
 20
11.8727657286163701
 30
0.0
  0
POINT
  5
BF2
  8
DEFPOINTS
 62
     0
 10
65.130438749475374
 20
11.8727657286163701
 30
0.0
  0
ENDBLK
  5
BDE
  8
0
 62
     1
  0
BLOCK
  8
0
 62
     1
  2
*U44
 70
     1
 10
0.0
 20
0.0
 30
0.0
  3
*U44
  1

  0
TEXT
  5
E30
  8
0
 62
     0
 10
64.9304387494753712
 20
13.6878044676999604
 30
0.0
 40
0.125
  1
3.755
 41
0.8
  0
ENDBLK
  5
E32
  8
0
 62
     1
  0
BLOCK
  8
0
 62
     1
  2
*D45
 70
     1
 10
0.0
 20
0.0
 30
0.0
  3
*D45
  1

  0
LINE
  5
C18
  8
0
 62
     0
 10
63.8373928176661494
 20
11.8727657286163701
 30
0.0
 11
65.2488826316478736
 21
11.8727657286163701
 31
0.0
  0
LINE
  5
C19
  8
0
 62
     0
 10
61.5873928176661565
 20
15.6227657286163808
 30
0.0
 11
65.2488826316478736
 21
15.6227657286163808
 31
0.0
  0
LINE
  5
C1A
  8
0
 62
     0
 10
65.1488826316478793
 20
12.1227657286163701
 30
0.0
 11
65.1488826316478793
 21
13.5952657286163703
 31
0.0
  0
LINE
  5
C1B
  8
0
 62
     0
 10
65.1488826316478793
 20
15.3727657286163701
 30
0.0
 11
65.1488826316478793
 21
13.90026572861637
 31
0.0
  0
SOLID
  5
C1C
  8
0
 62
     0
 10
65.1072159649812079
 20
12.1227657286163701
 30
0.0
 11
65.1905492983145507
 21
12.1227657286163701
 31
0.0
 12
65.1488826316478793
 22
11.8727657286163701
 32
0.0
 13
65.1488826316478793
 23
11.8727657286163701
 33
0.0
  0
SOLID
  5
C1D
  8
0
 62
     0
 10
65.1072159649812079
 20
15.3727657286163701
 30
0.0
 11
65.1905492983145507
 21
15.3727657286163701
 31
0.0
 12
65.1488826316478793
 22
15.6227657286163808
 32
0.0
 13
65.1488826316478793
 23
15.6227657286163808
 33
0.0
  0
INSERT
  5
C1E
  8
0
 62
     1
  2
*U46
 10
0.0
 20
0.0
 30
0.0
  0
POINT
  5
C1F
  8
DEFPOINTS
 62
     0
 10
63.6373928176661607
 20
11.8727657286163701
 30
0.0
  0
POINT
  5
C20
  8
DEFPOINTS
 62
     0
 10
61.3873928176661465
 20
15.6227657286163808
 30
0.0
  0
POINT
  5
C21
  8
DEFPOINTS
 62
     0
 10
65.1488826316478793
 20
15.6227657286163808
 30
0.0
  0
ENDBLK
  5
C0D
  8
0
 62
     1
  0
BLOCK
  8
0
 62
     1
  2
*U46
 70
     1
 10
0.0
 20
0.0
 30
0.0
  3
*U46
  1

  0
TEXT
  5
E34
  8
0
 62
     0
 10
64.9572159649812022
 20
13.6852657286163506
 30
0.0
 40
0.125
  1
3.750
 41
0.8
  0
ENDBLK
  5
E36
  8
0
 62
     1
  0
BLOCK
  8
0
 62
     1
  2
*D47
 70
     1
 10
0.0
 20
0.0
 30
0.0
  3
*D47
  1

  0
LINE
  5
C30
  8
0
 62
     0
 10
61.3873928176661181
 20
15.4227657286163709
 30
0.0
 11
61.3873928176661181
 21
11.2928700908966508
 31
0.0
  0
LINE
  5
C31
  8
0
 62
     0
 10
63.6373928176661181
 20
11.6727657286163709
 30
0.0
 11
63.6373928176661181
 21
11.2928700908966508
 31
0.0
  0
LINE
  5
C32
  8
0
 62
     0
 10
61.6373928176661323
 20
11.3928700908966505
 30
0.0
 11
62.2307261509994518
 21
11.3928700908966505
 31
0.0
  0
LINE
  5
C33
  8
0
 62
     0
 10
63.3873928176661323
 20
11.3928700908966505
 30
0.0
 11
62.7940594843327915
 21
11.3928700908966505
 31
0.0
  0
SOLID
  5
C34
  8
0
 62
     0
 10
61.6373928176661323
 20
11.4345367575633095
 30
0.0
 11
61.6373928176661323
 21
11.3512034242299809
 31
0.0
 12
61.3873928176661181
 22
11.3928700908966505
 32
0.0
 13
61.3873928176661181
 23
11.3928700908966505
 33
0.0
  0
SOLID
  5
C35
  8
0
 62
     0
 10
63.3873928176661323
 20
11.4345367575633095
 30
0.0
 11
63.3873928176661323
 21
11.3512034242299809
 31
0.0
 12
63.6373928176661181
 22
11.3928700908966505
 32
0.0
 13
63.6373928176661181
 23
11.3928700908966505
 33
0.0
  0
INSERT
  5
C36
  8
0
 62
     1
  2
*U48
 10
0.0
 20
0.0
 30
0.0
  0
POINT
  5
C37
  8
DEFPOINTS
 62
     0
 10
61.3873928176661181
 20
15.6227657286163701
 30
0.0
  0
POINT
  5
C38
  8
DEFPOINTS
 62
     0
 10
63.6373928176661181
 20
11.8727657286163701
 30
0.0
  0
POINT
  5
C39
  8
DEFPOINTS
 62
     0
 10
63.6373928176661181
 20
11.3928700908966505
 30
0.0
  0
ENDBLK
  5
C25
  8
0
 62
     1
  0
BLOCK
  8
0
 62
     1
  2
*U48
 70
     1
 10
0.0
 20
0.0
 30
0.0
  3
*U48
  1

  0
TEXT
  5
E38
  8
0
 62
     0
 10
62.320726150999441
 20
11.3303700908966505
 30
0.0
 40
0.125
  1
2.250
 41
0.8
  0
ENDBLK
  5
E3A
  8
0
 62
     1
  0
BLOCK
  8
0
 62
     1
  2
*D49
 70
     1
 10
0.0
 20
0.0
 30
0.0
  3
*D49
  1

  0
LINE
  5
C40
  8
0
 62
     0
 10
59.1373928176661323
 20
11.6727657286163709
 30
0.0
 11
59.1373928176661323
 21
10.9379352146118194
 31
0.0
  0
LINE
  5
C41
  8
0
 62
     0
 10
63.6373928176661181
 20
11.6727657286163709
 30
0.0
 11
63.6373928176661181
 21
10.9379352146118194
 31
0.0
  0
LINE
  5
C42
  8
0
 62
     0
 10
59.3873928176661181
 20
11.0379352146118208
 30
0.0
 11
61.1140594843327918
 21
11.0379352146118208
 31
0.0
  0
LINE
  5
C43
  8
0
 62
     0
 10
63.3873928176661323
 20
11.0379352146118208
 30
0.0
 11
61.6607261509994515
 21
11.0379352146118208
 31
0.0
  0
SOLID
  5
C44
  8
0
 62
     0
 10
59.3873928176661181
 20
11.0796018812784798
 30
0.0
 11
59.3873928176661181
 21
10.9962685479451494
 31
0.0
 12
59.1373928176661323
 22
11.0379352146118208
 32
0.0
 13
59.1373928176661323
 23
11.0379352146118208
 33
0.0
  0
SOLID
  5
C45
  8
0
 62
     0
 10
63.3873928176661323
 20
11.0796018812784798
 30
0.0
 11
63.3873928176661323
 21
10.9962685479451494
 31
0.0
 12
63.6373928176661181
 22
11.0379352146118208
 32
0.0
 13
63.6373928176661181
 23
11.0379352146118208
 33
0.0
  0
INSERT
  5
C46
  8
0
 62
     1
  2
*U50
 10
0.0
 20
0.0
 30
0.0
  0
POINT
  5
C47
  8
DEFPOINTS
 62
     0
 10
59.1373928176661323
 20
11.8727657286163701
 30
0.0
  0
POINT
  5
C48
  8
DEFPOINTS
 62
     0
 10
63.6373928176661181
 20
11.8727657286163701
 30
0.0
  0
POINT
  5
C49
  8
DEFPOINTS
 62
     0
 10
63.6373928176661181
 20
11.0379352146118208
 30
0.0
  0
ENDBLK
  5
C4A
  8
0
 62
     1
  0
BLOCK
  8
0
 62
     1
  2
*U50
 70
     1
 10
0.0
 20
0.0
 30
0.0
  3
*U50
  1

  0
TEXT
  5
E3C
  8
0
 62
     0
 10
61.2040594843328023
 20
10.9754352146118208
 30
0.0
 40
0.125
  1
4.500
 41
0.8
  0
ENDBLK
  5
E3E
  8
0
 62
     1
  0
BLOCK
  8
0
 62
     1
  2
*D51
 70
     1
 10
0.0
 20
0.0
 30
0.0
  3
*D51
  1

  0
LINE
  5
C4D
  8
0
 62
     0
 10
63.8373928176661494
 20
11.8727657286163701
 30
0.0
 11
65.2488826316478736
 21
11.8727657286163701
 31
0.0
  0
LINE
  5
C4E
  8
0
 62
     0
 10
61.5873928176661565
 20
15.6227657286163808
 30
0.0
 11
65.2488826316478736
 21
15.6227657286163808
 31
0.0
  0
LINE
  5
C4F
  8
0
 62
     0
 10
65.1488826316478793
 20
12.1227657286163701
 30
0.0
 11
65.1488826316478793
 21
13.5952657286163703
 31
0.0
  0
LINE
  5
C50
  8
0
 62
     0
 10
65.1488826316478793
 20
15.3727657286163701
 30
0.0
 11
65.1488826316478793
 21
13.90026572861637
 31
0.0
  0
SOLID
  5
C51
  8
0
 62
     0
 10
65.1072159649812079
 20
12.1227657286163701
 30
0.0
 11
65.1905492983145507
 21
12.1227657286163701
 31
0.0
 12
65.1488826316478793
 22
11.8727657286163701
 32
0.0
 13
65.1488826316478793
 23
11.8727657286163701
 33
0.0
  0
SOLID
  5
C52
  8
0
 62
     0
 10
65.1072159649812079
 20
15.3727657286163701
 30
0.0
 11
65.1905492983145507
 21
15.3727657286163701
 31
0.0
 12
65.1488826316478793
 22
15.6227657286163808
 32
0.0
 13
65.1488826316478793
 23
15.6227657286163808
 33
0.0
  0
INSERT
  5
C53
  8
0
 62
     1
  2
*U52
 10
0.0
 20
0.0
 30
0.0
  0
POINT
  5
C54
  8
DEFPOINTS
 62
     0
 10
63.6373928176661607
 20
11.8727657286163701
 30
0.0
  0
POINT
  5
C55
  8
DEFPOINTS
 62
     0
 10
61.3873928176661465
 20
15.6227657286163808
 30
0.0
  0
POINT
  5
C56
  8
DEFPOINTS
 62
     0
 10
65.1488826316478793
 20
15.6227657286163808
 30
0.0
  0
ENDBLK
  5
C57
  8
0
 62
     1
  0
BLOCK
  8
0
 62
     1
  2
*U52
 70
     1
 10
0.0
 20
0.0
 30
0.0
  3
*U52
  1

  0
TEXT
  5
E40
  8
0
 62
     0
 10
64.9572159649812022
 20
13.6852657286163506
 30
0.0
 40
0.125
  1
3.750
 41
0.8
  0
ENDBLK
  5
E42
  8
0
 62
     1
  0
BLOCK
  8
0
 62
     1
  2
*D53
 70
     1
 10
0.0
 20
0.0
 30
0.0
  3
*D53
  1

  0
LINE
  5
C5A
  8
0
 62
     0
 10
61.3873928176661181
 20
15.4227657286163709
 30
0.0
 11
61.3873928176661181
 21
11.2928700908966508
 31
0.0
  0
LINE
  5
C5B
  8
0
 62
     0
 10
63.6373928176661181
 20
11.6727657286163709
 30
0.0
 11
63.6373928176661181
 21
11.2928700908966508
 31
0.0
  0
LINE
  5
C5C
  8
0
 62
     0
 10
61.6373928176661323
 20
11.3928700908966505
 30
0.0
 11
62.2307261509994518
 21
11.3928700908966505
 31
0.0
  0
LINE
  5
C5D
  8
0
 62
     0
 10
63.3873928176661323
 20
11.3928700908966505
 30
0.0
 11
62.7940594843327915
 21
11.3928700908966505
 31
0.0
  0
SOLID
  5
C5E
  8
0
 62
     0
 10
61.6373928176661323
 20
11.4345367575633095
 30
0.0
 11
61.6373928176661323
 21
11.3512034242299809
 31
0.0
 12
61.3873928176661181
 22
11.3928700908966505
 32
0.0
 13
61.3873928176661181
 23
11.3928700908966505
 33
0.0
  0
SOLID
  5
C5F
  8
0
 62
     0
 10
63.3873928176661323
 20
11.4345367575633095
 30
0.0
 11
63.3873928176661323
 21
11.3512034242299809
 31
0.0
 12
63.6373928176661181
 22
11.3928700908966505
 32
0.0
 13
63.6373928176661181
 23
11.3928700908966505
 33
0.0
  0
INSERT
  5
C60
  8
0
 62
     1
  2
*U54
 10
0.0
 20
0.0
 30
0.0
  0
POINT
  5
C61
  8
DEFPOINTS
 62
     0
 10
61.3873928176661181
 20
15.6227657286163701
 30
0.0
  0
POINT
  5
C62
  8
DEFPOINTS
 62
     0
 10
63.6373928176661181
 20
11.8727657286163701
 30
0.0
  0
POINT
  5
C63
  8
DEFPOINTS
 62
     0
 10
63.6373928176661181
 20
11.3928700908966505
 30
0.0
  0
ENDBLK
  5
C64
  8
0
 62
     1
  0
BLOCK
  8
0
 62
     1
  2
*U54
 70
     1
 10
0.0
 20
0.0
 30
0.0
  3
*U54
  1

  0
TEXT
  5
E44
  8
0
 62
     0
 10
62.320726150999441
 20
11.3303700908966505
 30
0.0
 40
0.125
  1
2.250
 41
0.8
  0
ENDBLK
  5
E46
  8
0
 62
     1
  0
BLOCK
  8
0
 62
     1
  2
*D55
 70
     1
 10
0.0
 20
0.0
 30
0.0
  3
*D55
  1

  0
LINE
  5
CCC
  8
0
 62
     0
 10
49.2947336626446173
 20
12.0050351457378905
 30
0.0
 11
49.2947336626446173
 21
11.2702046317333409
 31
0.0
  0
LINE
  5
CCD
  8
0
 62
     0
 10
53.7947336626446173
 20
12.0050351457378905
 30
0.0
 11
53.7947336626446173
 21
11.2702046317333409
 31
0.0
  0
LINE
  5
CCE
  8
0
 62
     0
 10
49.5447336626446173
 20
11.3702046317333405
 30
0.0
 11
51.2714003293112768
 21
11.3702046317333405
 31
0.0
  0
LINE
  5
CCF
  8
0
 62
     0
 10
53.5447336626446102
 20
11.3702046317333405
 30
0.0
 11
51.8180669959779507
 21
11.3702046317333405
 31
0.0
  0
SOLID
  5
CD0
  8
0
 62
     0
 10
49.5447336626446173
 20
11.4118712984000101
 30
0.0
 11
49.5447336626446173
 21
11.3285379650666709
 31
0.0
 12
49.2947336626446173
 22
11.3702046317333405
 32
0.0
 13
49.2947336626446173
 23
11.3702046317333405
 33
0.0
  0
SOLID
  5
CD1
  8
0
 62
     0
 10
53.5447336626446102
 20
11.4118712984000101
 30
0.0
 11
53.5447336626446102
 21
11.3285379650666709
 31
0.0
 12
53.7947336626446173
 22
11.3702046317333405
 32
0.0
 13
53.7947336626446173
 23
11.3702046317333405
 33
0.0
  0
INSERT
  5
CD2
  8
0
 62
     1
  2
*U56
 10
0.0
 20
0.0
 30
0.0
  0
POINT
  5
CD3
  8
DEFPOINTS
 62
     0
 10
49.2947336626446173
 20
12.2050351457378898
 30
0.0
  0
POINT
  5
CD4
  8
DEFPOINTS
 62
     0
 10
53.7947336626446173
 20
12.2050351457378898
 30
0.0
  0
POINT
  5
CD5
  8
DEFPOINTS
 62
     0
 10
53.7947336626446173
 20
11.3702046317333405
 30
0.0
  0
ENDBLK
  5
CA7
  8
0
 62
     1
  0
BLOCK
  8
0
 62
     1
  2
*U56
 70
     1
 10
0.0
 20
0.0
 30
0.0
  3
*U56
  1

  0
TEXT
  5
E48
  8
0
 62
     0
 10
51.3614003293112873
 20
11.3077046317333405
 30
0.0
 40
0.125
  1
4.500
 41
0.8
  0
ENDBLK
  5
E4A
  8
0
 62
     1
  0
BLOCK
  8
0
 62
     1
  2
*D57
 70
     1
 10
0.0
 20
0.0
 30
0.0
  3
*D57
  1

  0
LINE
  5
CD6
  8
0
 62
     0
 10
53.9947336626446486
 20
12.2050351457379005
 30
0.0
 11
55.4062234766264012
 21
12.2050351457379005
 31
0.0
  0
LINE
  5
CD7
  8
0
 62
     0
 10
51.7447336626446415
 20
15.9550351457379005
 30
0.0
 11
55.4062234766264012
 21
15.9550351457379005
 31
0.0
  0
LINE
  5
CD8
  8
0
 62
     0
 10
55.3062234766263998
 20
12.4550351457379005
 30
0.0
 11
55.3062234766263998
 21
13.9275351457379006
 31
0.0
  0
LINE
  5
CD9
  8
0
 62
     0
 10
55.3062234766263998
 20
15.7050351457379005
 30
0.0
 11
55.3062234766263998
 21
14.2325351457379004
 31
0.0
  0
SOLID
  5
CDA
  8
0
 62
     0
 10
55.2645568099597213
 20
12.4550351457379005
 30
0.0
 11
55.347890143293057
 21
12.4550351457379005
 31
0.0
 12
55.3062234766263998
 22
12.2050351457379005
 32
0.0
 13
55.3062234766263998
 23
12.2050351457379005
 33
0.0
  0
SOLID
  5
CDB
  8
0
 62
     0
 10
55.2645568099597213
 20
15.7050351457379005
 30
0.0
 11
55.347890143293057
 21
15.7050351457379005
 31
0.0
 12
55.3062234766263998
 22
15.9550351457379005
 32
0.0
 13
55.3062234766263998
 23
15.9550351457379005
 33
0.0
  0
INSERT
  5
CDC
  8
0
 62
     1
  2
*U58
 10
0.0
 20
0.0
 30
0.0
  0
POINT
  5
CDD
  8
DEFPOINTS
 62
     0
 10
53.7947336626446386
 20
12.2050351457379005
 30
0.0
  0
POINT
  5
CDE
  8
DEFPOINTS
 62
     0
 10
51.5447336626446528
 20
15.9550351457379005
 30
0.0
  0
POINT
  5
CDF
  8
DEFPOINTS
 62
     0
 10
55.3062234766263998
 20
15.9550351457379005
 30
0.0
  0
ENDBLK
  5
CB4
  8
0
 62
     1
  0
BLOCK
  8
0
 62
     1
  2
*U58
 70
     1
 10
0.0
 20
0.0
 30
0.0
  3
*U58
  1

  0
TEXT
  5
E4C
  8
0
 62
     0
 10
55.1145568099597227
 20
14.0175351457378792
 30
0.0
 40
0.125
  1
3.750
 41
0.8
  0
ENDBLK
  5
E4E
  8
0
 62
     1
  0
BLOCK
  8
0
 62
     1
  2
*D59
 70
     1
 10
0.0
 20
0.0
 30
0.0
  3
*D59
  1

  0
LINE
  5
CE0
  8
0
 62
     0
 10
51.5447336626446102
 20
15.7550351457378905
 30
0.0
 11
51.5447336626446102
 21
11.6251395080181705
 31
0.0
  0
LINE
  5
CE1
  8
0
 62
     0
 10
53.7947336626446173
 20
12.0050351457378905
 30
0.0
 11
53.7947336626446173
 21
11.6251395080181705
 31
0.0
  0
LINE
  5
CE2
  8
0
 62
     0
 10
51.7947336626446173
 20
11.7251395080181702
 30
0.0
 11
52.388066995977951
 21
11.7251395080181702
 31
0.0
  0
LINE
  5
CE3
  8
0
 62
     0
 10
53.5447336626446102
 20
11.7251395080181702
 30
0.0
 11
52.9514003293112765
 21
11.7251395080181702
 31
0.0
  0
SOLID
  5
CE4
  8
0
 62
     0
 10
51.7947336626446173
 20
11.7668061746848398
 30
0.0
 11
51.7947336626446173
 21
11.6834728413515005
 31
0.0
 12
51.5447336626446102
 22
11.7251395080181702
 32
0.0
 13
51.5447336626446102
 23
11.7251395080181702
 33
0.0
  0
SOLID
  5
CE5
  8
0
 62
     0
 10
53.5447336626446102
 20
11.7668061746848398
 30
0.0
 11
53.5447336626446102
 21
11.6834728413515005
 31
0.0
 12
53.7947336626446173
 22
11.7251395080181702
 32
0.0
 13
53.7947336626446173
 23
11.7251395080181702
 33
0.0
  0
INSERT
  5
CE6
  8
0
 62
     1
  2
*U60
 10
0.0
 20
0.0
 30
0.0
  0
POINT
  5
CE7
  8
DEFPOINTS
 62
     0
 10
51.5447336626446102
 20
15.9550351457378792
 30
0.0
  0
POINT
  5
CE8
  8
DEFPOINTS
 62
     0
 10
53.7947336626446173
 20
12.2050351457378898
 30
0.0
  0
POINT
  5
CE9
  8
DEFPOINTS
 62
     0
 10
53.7947336626446173
 20
11.7251395080181702
 30
0.0
  0
ENDBLK
  5
CC1
  8
0
 62
     1
  0
BLOCK
  8
0
 62
     1
  2
*U60
 70
     1
 10
0.0
 20
0.0
 30
0.0
  3
*U60
  1

  0
TEXT
  5
E50
  8
0
 62
     0
 10
52.4780669959779473
 20
11.6626395080181702
 30
0.0
 40
0.125
  1
2.250
 41
0.8
  0
ENDBLK
  5
E52
  8
0
 62
     1
  0
BLOCK
  8
0
 62
     1
  2
*D61
 70
     1
 10
0.0
 20
0.0
 30
0.0
  3
*D61
  1

  0
LINE
  5
CF8
  8
0
 62
     0
 10
51.7447336626446415
 20
15.9550351457379005
 30
0.0
 11
54.7174532734365116
 21
15.9550351457379005
 31
0.0
  0
LINE
  5
CF9
  8
0
 62
     0
 10
50.8072336626446415
 20
13.7675351457379005
 30
0.0
 11
54.7174532734365116
 21
13.7675351457379005
 31
0.0
  0
LINE
  5
CFA
  8
0
 62
     0
 10
54.6174532734365101
 20
15.7050351457379005
 30
0.0
 11
54.6174532734365101
 21
15.0137851457379004
 31
0.0
  0
LINE
  5
CFB
  8
0
 62
     0
 10
54.6174532734365101
 20
14.0175351457379005
 30
0.0
 11
54.6174532734365101
 21
14.7087851457379006
 31
0.0
  0
SOLID
  5
CFC
  8
0
 62
     0
 10
54.5757866067698387
 20
15.7050351457379005
 30
0.0
 11
54.6591199401031602
 21
15.7050351457379005
 31
0.0
 12
54.6174532734365101
 22
15.9550351457379005
 32
0.0
 13
54.6174532734365101
 23
15.9550351457379005
 33
0.0
  0
SOLID
  5
CFD
  8
0
 62
     0
 10
54.5757866067698387
 20
14.0175351457379005
 30
0.0
 11
54.6591199401031602
 21
14.0175351457379005
 31
0.0
 12
54.6174532734365101
 22
13.7675351457379005
 32
0.0
 13
54.6174532734365101
 23
13.7675351457379005
 33
0.0
  0
INSERT
  5
CFE
  8
0
 62
     1
  2
*U62
 10
0.0
 20
0.0
 30
0.0
  0
POINT
  5
CFF
  8
DEFPOINTS
 62
     0
 10
51.5447336626446528
 20
15.9550351457379005
 30
0.0
  0
POINT
  5
D00
  8
DEFPOINTS
 62
     0
 10
50.6072336626446528
 20
13.7675351457379005
 30
0.0
  0
POINT
  5
D01
  8
DEFPOINTS
 62
     0
 10
54.6174532734365101
 20
13.7675351457379005
 30
0.0
  0
ENDBLK
  5
CED
  8
0
 62
     1
  0
BLOCK
  8
0
 62
     1
  2
*U62
 70
     1
 10
0.0
 20
0.0
 30
0.0
  3
*U62
  1

  0
TEXT
  5
E54
  8
0
 62
     0
 10
54.4341199401031588
 20
14.7987851457378792
 30
0.0
 40
0.125
  1
2.188
 41
0.8
  0
ENDBLK
  5
E56
  8
0
 62
     1
  0
BLOCK
  8
0
 62
     1
  2
*D63
 70
     1
 10
0.0
 20
0.0
 30
0.0
  3
*D63
  1

  0
LINE
  5
D1A
  8
0
 62
     0
 10
51.5447336626446102
 20
15.7550351457378905
 30
0.0
 11
51.5447336626446102
 21
11.6251395080181705
 31
0.0
  0
LINE
  5
D1B
  8
0
 62
     0
 10
50.6072336626446102
 20
13.5675351457378905
 30
0.0
 11
50.6072336626446102
 21
11.6251395080181705
 31
0.0
  0
LINE
  5
D1C
  8
0
 62
     0
 10
51.2947336626446173
 20
11.7251395080181702
 30
0.0
 11
50.8572336626446173
 21
11.7251395080181702
 31
0.0
  0
LINE
  5
D1D
  8
0
 62
     0
 10
50.6072336626446102
 20
11.7251395080181702
 30
0.0
 11
50.3572336626446173
 21
11.7251395080181702
 31
0.0
  0
SOLID
  5
D1E
  8
0
 62
     0
 10
51.2947336626446173
 20
11.7668061746848398
 30
0.0
 11
51.2947336626446173
 21
11.6834728413515005
 31
0.0
 12
51.5447336626446102
 22
11.7251395080181702
 32
0.0
 13
51.5447336626446102
 23
11.7251395080181702
 33
0.0
  0
SOLID
  5
D1F
  8
0
 62
     0
 10
50.8572336626446173
 20
11.7668061746848398
 30
0.0
 11
50.8572336626446173
 21
11.6834728413515005
 31
0.0
 12
50.6072336626446102
 22
11.7251395080181702
 32
0.0
 13
50.6072336626446102
 23
11.7251395080181702
 33
0.0
  0
INSERT
  5
D20
  8
0
 62
     1
  2
*U64
 10
0.0
 20
0.0
 30
0.0
  0
POINT
  5
D21
  8
DEFPOINTS
 62
     0
 10
51.5447336626446102
 20
15.9550351457378792
 30
0.0
  0
POINT
  5
D22
  8
DEFPOINTS
 62
     0
 10
50.6072336626446102
 20
13.7675351457378898
 30
0.0
  0
POINT
  5
D23
  8
DEFPOINTS
 62
     0
 10
50.6072336626446102
 20
11.7251395080181702
 30
0.0
  0
ENDBLK
  5
D05
  8
0
 62
     1
  0
BLOCK
  8
0
 62
     1
  2
*U64
 70
     1
 10
0.0
 20
0.0
 30
0.0
  3
*U64
  1

  0
TEXT
  5
E58
  8
0
 62
     0
 10
49.883900329311281
 20
11.6626395080181702
 30
0.0
 40
0.125
  1
0.938
 41
0.8
  0
ENDBLK
  5
E5A
  8
0
 62
     1
  0
BLOCK
  8
0
 62
     1
  2
*D65
 70
     1
 10
0.0
 20
0.0
 30
0.0
  3
*D65
  1

  0
LINE
  5
D30
  8
0
 62
     0
 10
49.9986780764323697
 20
14.78403200168413
 30
0.0
 11
50.2674280764323811
 21
14.78403200168413
 31
0.0
  0
LINE
  5
D31
  8
0
 62
     0
 10
50.2674280764323811
 20
14.78403200168413
 30
0.0
 11
50.3694499533273117
 21
14.4788430309629206
 31
0.0
  0
INSERT
  5
D32
  8
0
 62
     1
  2
*U66
 10
0.0
 20
0.0
 30
0.0
  0
SOLID
  5
D33
  8
0
 62
     0
 10
50.4089670580620393
 20
14.4920532370360995
 30
0.0
 11
50.3299328485925983
 21
14.4656328248897292
 31
0.0
 12
50.448711189766442
 22
14.24174040255458
 32
0.0
 13
50.448711189766442
 23
14.24174040255458
 33
0.0
  0
LINE
  5
D34
  8
0
 62
     0
 10
50.4542336626446613
 20
13.7675351457378898
 30
0.0
 11
50.7602336626446586
 21
13.7675351457378898
 31
0.0
  0
LINE
  5
D35
  8
0
 62
     0
 10
50.6072336626446528
 20
13.6145351457378805
 30
0.0
 11
50.6072336626446528
 21
13.9205351457378903
 31
0.0
  0
POINT
  5
D36
  8
DEFPOINTS
 62
     0
 10
50.448711189766442
 20
14.24174040255458
 30
0.0
  0
POINT
  5
D37
  8
DEFPOINTS
 62
     0
 10
50.6072336626446528
 20
13.7675351457378898
 30
0.0
  0
ENDBLK
  5
D27
  8
0
 62
     1
  0
BLOCK
  8
0
 62
     1
  2
*U66
 70
     1
 10
0.0
 20
0.0
 30
0.0
  3
*U66
  1

  0
TEXT
  5
E5C
  8
0
 62
     0
 10
49.4586780764323706
 20
14.72153200168413
 30
0.0
 40
0.125
  1
R0.500
 41
0.8
  0
ENDBLK
  5
E5E
  8
0
 62
     1
  0
BLOCK
  8
0
 62
     1
  2
*D67
 70
     1
 10
0.0
 20
0.0
 30
0.0
  3
*D67
  1

  0
LINE
  5
D3C
  8
0
 62
     0
 10
54.2164692984424974
 20
11.6806200875864992
 30
0.0
 11
54.1227192984424974
 21
11.6806200875865098
 31
0.0
  0
LINE
  5
D3D
  8
0
 62
     0
 10
54.1227192984424974
 20
11.6806200875865098
 30
0.0
 11
53.9189475174500075
 21
12.00643005825426
 31
0.0
  0
INSERT
  5
D3E
  8
0
 62
     1
  2
*U68
 10
0.0
 20
0.0
 30
0.0
  0
SOLID
  5
D3F
  8
0
 62
     0
 10
53.9321949218979668
 20
12.0147154007572805
 30
0.0
 11
53.9057001130020907
 21
11.99814471575122
 31
0.0
 12
53.869235462431817
 22
12.0859144849419309
 32
0.0
 13
53.869235462431817
 23
12.0859144849419309
 33
0.0
  0
LINE
  5
D40
  8
0
 62
     0
 10
53.6417336626445618
 20
12.2050351457378898
 30
0.0
 11
53.9477336626445521
 21
12.2050351457378792
 31
0.0
  0
LINE
  5
D41
  8
0
 62
     0
 10
53.7947336626445605
 20
12.0520351457378894
 30
0.0
 11
53.7947336626445605
 21
12.3580351457378796
 31
0.0
  0
POINT
  5
D42
  8
DEFPOINTS
 62
     0
 10
53.869235462431817
 20
12.0859144849419309
 30
0.0
  0
POINT
  5
D43
  8
DEFPOINTS
 62
     0
 10
53.7947336626445605
 20
12.2050351457378792
 30
0.0
  0
ENDBLK
  5
D3B
  8
0
 62
     1
  0
BLOCK
  8
0
 62
     1
  2
*U68
 70
     1
 10
0.0
 20
0.0
 30
0.0
  3
*U68
  1

  0
TEXT
  5
E60
  8
0
 62
     0
 10
54.3064692984424866
 20
11.6337450875865098
 30
0.0
 40
0.09375
  1
R0.1405±0.0010
 41
0.8
  0
ENDBLK
  5
E62
  8
0
 62
     1
  0
BLOCK
  8
0
 62
     1
  2
*D69
 70
     1
 10
0.0
 20
0.0
 30
0.0
  3
*D69
  1

  0
LINE
  5
DC2
  8
0
 62
     0
 10
54.3572087005525972
 20
11.64592907289979
 30
0.0
 11
54.1072087005526114
 21
11.64592907289979
 31
0.0
  0
LINE
  5
DC3
  8
0
 62
     0
 10
54.1072087005526114
 20
11.64592907289979
 30
0.0
 11
53.9852434242419221
 21
11.8641593901668205
 31
0.0
  0
INSERT
  5
DC4
  8
0
 62
     1
  2
*U70
 10
0.0
 20
0.0
 30
0.0
  0
SOLID
  5
DC5
  8
0
 62
     0
 10
54.0216151437864198
 20
11.8844869362186003
 30
0.0
 11
53.9488717046974173
 21
11.8438318441150408
 31
0.0
 12
53.863278147931247
 22
12.0823897074338298
 32
0.0
 13
53.863278147931247
 23
12.0823897074338298
 33
0.0
  0
LINE
  5
DC6
  8
0
 62
     0
 10
53.641733662644647
 20
12.2050351457378898
 30
0.0
 11
53.9477336626446302
 21
12.2050351457379005
 31
0.0
  0
LINE
  5
DC7
  8
0
 62
     0
 10
53.7947336626446386
 20
12.0520351457379
 30
0.0
 11
53.7947336626446386
 21
12.3580351457378992
 31
0.0
  0
POINT
  5
DC8
  8
DEFPOINTS
 62
     0
 10
53.863278147931247
 20
12.0823897074338298
 30
0.0
  0
POINT
  5
DC9
  8
DEFPOINTS
 62
     0
 10
53.7261891773580516
 20
12.3276805840419605
 30
0.0
  0
ENDBLK
  5
D47
  8
0
 62
     1
  0
BLOCK
  8
0
 62
     1
  2
*U70
 70
     1
 10
0.0
 20
0.0
 30
0.0
  3
*U70
  1

  0
TEXT
  5
E64
  8
0
 62
     0
 10
54.4472087005526006
 20
11.6042624062331203
 30
0.0
 40
0.125
  1
\U+22050.281 3 plcs
 41
0.8
  0
ENDBLK
  5
E66
  8
0
 62
     1
  0
ENDSEC
  0
SECTION
  2
ENTITIES
  0
CIRCLE
  5
C88
  8
0
 62
     0
 10
53.7947336626446173
 20
12.2050351457378898
 30
0.0
 40
0.1405
  0
CIRCLE
  5
C89
  8
0
 62
     0
 10
49.2947336626446173
 20
12.2050351457378898
 30
0.0
 40
0.1405
  0
LINE
  5
C8A
  8
0
 62
     0
 10
51.4861349491352769
 20
16.201257977146259
 30
0.0
 11
49.9127805392352926
 21
15.9523427124798403
 31
0.0
  0
ARC
  5
C8B
  8
0
 62
     0
 10
50.1422704892735069
 20
15.1872476385620505
 30
0.0
 40
0.7987716252482996
 50
106.696594145010593
 51
165.5122537839631036
  0
LINE
  5
C8C
  8
0
 62
     0
 10
54.0961484394655301
 20
12.2492513526093205
 30
0.0
 11
53.7205684555289693
 21
15.3870786857827007
 31
0.0
  0
ARC
  5
C8D
  8
0
 62
     0
 10
52.9471968360157277
 20
15.1872476385620505
 30
0.0
 40
0.7987716252482996
 50
14.4877462160366992
 51
73.3034058549889238
  0
ARC
  5
C8E
  8
0
 62
     0
 10
53.7774663449980892
 20
12.2031877108126192
 30
0.0
 40
0.3219940006113814
 50
259.2792481562819944
 51
8.2248067659045052
  0
LINE
  5
C8F
  8
0
 62
     0
 10
52.8727921531830489
 20
12.0232926332703496
 30
0.0
 11
53.7175682180278784
 21
11.8868139590328905
 31
0.0
  0
ARC
  5
C90
  8
0
 62
     0
 10
53.0161169942379189
 20
12.6024891523739306
 30
0.0
 40
0.6066268914118871
 50
224.7182779317982977
 51
233.3951890077103997
  0
LINE
  5
C91
  8
0
 62
     0
 10
52.40682173708975
 20
12.5632304679182596
 30
0.0
 11
52.462013143356991
 21
12.3818850299664405
 31
0.0
  0
ARC
  5
C92
  8
0
 62
     0
 10
51.5447336626446102
 20
12.1907139984146902
 30
0.0
 40
0.9412776067515304
 50
25.6952240084335806
 51
154.3047759915664017
  0
LINE
  5
C93
  8
0
 62
     0
 10
51.6033323761539293
 20
16.201257977146259
 30
0.0
 11
53.1766867860539421
 21
15.9523427124798403
 31
0.0
  0
ARC
  5
C94
  8
0
 62
     0
 10
51.5447336626446031
 20
15.83086468512405
 30
0.0
 40
0.375
 50
81.009932855201086
 51
98.9900671447988998
  0
LINE
  5
C95
  8
0
 62
     0
 10
48.9933188858236903
 20
12.2492513526093205
 30
0.0
 11
49.3688988697602511
 21
15.3870786857827007
 31
0.0
  0
ARC
  5
C96
  8
0
 62
     0
 10
49.3120009802911525
 20
12.2031877108126192
 30
0.0
 40
0.3219940006113814
 50
171.7751932340954113
 51
280.7207518437178919
  0
ARC
  5
C97
  8
0
 62
     0
 10
52.9525362016684795
 20
12.5168925590514899
 30
0.0
 40
0.5
 50
233.3951890077103997
 51
260.8228152023256143
  0
ARC
  5
C98
  8
0
 62
     0
 10
52.940350585786689
 20
12.5274641877117006
 30
0.0
 40
0.5
 50
196.9273154077486083
 51
224.7182779317982977
  0
ARC
  5
C99
  8
0
 62
     0
 10
52.1676530158748903
 20
12.4904408890456295
 30
0.0
 40
0.25
 50
16.9273154077484094
 51
25.6952240084338612
  0
LINE
  5
C9A
  8
0
 62
     0
 10
50.2166751721061928
 20
12.0232926332703496
 30
0.0
 11
49.3718991072613491
 21
11.8868139590328905
 31
0.0
  0
ARC
  5
C9B
  8
0
 62
     0
 10
50.0733503310513015
 20
12.6024891523739306
 30
0.0
 40
0.6066268914118871
 50
306.604810992289174
 51
315.2817220682022139
  0
ARC
  5
C9C
  8
0
 62
     0
 10
50.1491167395025315
 20
12.5274641877117006
 30
0.0
 40
0.5
 50
315.2817220682022139
 51
343.0726845922511075
  0
ARC
  5
C9D
  8
0
 62
     0
 10
50.1369311236207622
 20
12.5168925590514899
 30
0.0
 40
0.5
 50
279.1771847976743857
 51
306.604810992289174
  0
LINE
  5
C9E
  8
0
 62
     0
 10
50.6826455881994704
 20
12.5632304679182596
 30
0.0
 11
50.6274541819322224
 21
12.3818850299664405
 31
0.0
  0
ARC
  5
C9F
  8
0
 62
     0
 10
50.9218143094143088
 20
12.4904408890456295
 30
0.0
 40
0.25
 50
154.3047759915658048
 51
163.0726845922517043
  0
CIRCLE
  5
CA2
  8
0
 62
     0
 10
51.5447336626446102
 20
15.9550351457378792
 30
0.0
 40
0.1405
  0
ENDSEC
  0
EOF
