ISO-10303-21;
HEADER;
/* Generated by software containing ST-Developer
 * from STEP Tools, Inc. (www.steptools.com) 
 */

FILE_DESCRIPTION(
/* description */ (''),
/* implementation_level */ '2;1');

FILE_NAME(
/* name */ 'C:/Users/davidparkyns/Downloads/MG Camshaft tool v2.step',
/* time_stamp */ '2019-03-20T21:39:42+00:00',
/* author */ ('dave98PQU'),
/* organization */ (''),
/* preprocessor_version */ 'ST-DEVELOPER v17.2',
/* originating_system */ 'Autodesk Translation Framework v7.6.0.251',
/* authorisation */ '');

FILE_SCHEMA (('AUTOMOTIVE_DESIGN { 1 0 10303 214 3 1 1 }'));
ENDSEC;

DATA;
#10=MECHANICAL_DESIGN_GEOMETRIC_PRESENTATION_REPRESENTATION('',(#13),#543);
#11=SHAPE_REPRESENTATION_RELATIONSHIP('SRR','None',#553,#12);
#12=ADVANCED_BREP_SHAPE_REPRESENTATION('',(#14),#542);
#13=STYLED_ITEM('',(#562),#14);
#14=MANIFOLD_SOLID_BREP('Body2',#325);
#15=FACE_BOUND('',#54,.T.);
#16=FACE_BOUND('',#57,.T.);
#17=PLANE('',#342);
#18=PLANE('',#346);
#19=PLANE('',#347);
#20=PLANE('',#353);
#21=PLANE('',#354);
#22=PLANE('',#355);
#23=PLANE('',#356);
#24=PLANE('',#357);
#25=PLANE('',#358);
#26=PLANE('',#359);
#27=PLANE('',#360);
#28=PLANE('',#361);
#29=PLANE('',#362);
#30=FACE_OUTER_BOUND('',#46,.T.);
#31=FACE_OUTER_BOUND('',#47,.T.);
#32=FACE_OUTER_BOUND('',#48,.T.);
#33=FACE_OUTER_BOUND('',#49,.T.);
#34=FACE_OUTER_BOUND('',#50,.T.);
#35=FACE_OUTER_BOUND('',#51,.T.);
#36=FACE_OUTER_BOUND('',#52,.T.);
#37=FACE_OUTER_BOUND('',#53,.T.);
#38=FACE_OUTER_BOUND('',#55,.T.);
#39=FACE_OUTER_BOUND('',#56,.T.);
#40=FACE_OUTER_BOUND('',#58,.T.);
#41=FACE_OUTER_BOUND('',#59,.T.);
#42=FACE_OUTER_BOUND('',#60,.T.);
#43=FACE_OUTER_BOUND('',#61,.T.);
#44=FACE_OUTER_BOUND('',#62,.T.);
#45=FACE_OUTER_BOUND('',#63,.T.);
#46=EDGE_LOOP('',(#218,#219,#220,#221));
#47=EDGE_LOOP('',(#222,#223,#224,#225));
#48=EDGE_LOOP('',(#226,#227,#228,#229));
#49=EDGE_LOOP('',(#230,#231,#232,#233));
#50=EDGE_LOOP('',(#234,#235,#236,#237));
#51=EDGE_LOOP('',(#238,#239,#240,#241,#242,#243));
#52=EDGE_LOOP('',(#244,#245,#246,#247));
#53=EDGE_LOOP('',(#248,#249,#250,#251));
#54=EDGE_LOOP('',(#252,#253));
#55=EDGE_LOOP('',(#254,#255,#256,#257));
#56=EDGE_LOOP('',(#258,#259,#260,#261));
#57=EDGE_LOOP('',(#262,#263));
#58=EDGE_LOOP('',(#264,#265,#266,#267,#268,#269,#270));
#59=EDGE_LOOP('',(#271,#272,#273,#274,#275,#276,#277));
#60=EDGE_LOOP('',(#278,#279,#280,#281));
#61=EDGE_LOOP('',(#282,#283,#284,#285));
#62=EDGE_LOOP('',(#286,#287,#288,#289,#290,#291,#292,#293,#294,#295));
#63=EDGE_LOOP('',(#296,#297,#298,#299,#300,#301,#302,#303,#304,#305));
#64=LINE('',#455,#100);
#65=LINE('',#458,#101);
#66=LINE('',#461,#102);
#67=LINE('',#463,#103);
#68=LINE('',#464,#104);
#69=LINE('',#470,#105);
#70=LINE('',#473,#106);
#71=LINE('',#476,#107);
#72=LINE('',#478,#108);
#73=LINE('',#479,#109);
#74=LINE('',#482,#110);
#75=LINE('',#484,#111);
#76=LINE('',#485,#112);
#77=LINE('',#492,#113);
#78=LINE('',#499,#114);
#79=LINE('',#501,#115);
#80=LINE('',#503,#116);
#81=LINE('',#504,#117);
#82=LINE('',#508,#118);
#83=LINE('',#510,#119);
#84=LINE('',#512,#120);
#85=LINE('',#513,#121);
#86=LINE('',#516,#122);
#87=LINE('',#518,#123);
#88=LINE('',#519,#124);
#89=LINE('',#521,#125);
#90=LINE('',#522,#126);
#91=LINE('',#524,#127);
#92=LINE('',#525,#128);
#93=LINE('',#527,#129);
#94=LINE('',#528,#130);
#95=LINE('',#531,#131);
#96=LINE('',#533,#132);
#97=LINE('',#534,#133);
#98=LINE('',#536,#134);
#99=LINE('',#537,#135);
#100=VECTOR('',#369,0.393700787401575);
#101=VECTOR('',#372,0.393700787401575);
#102=VECTOR('',#375,0.393700787401575);
#103=VECTOR('',#376,0.393700787401575);
#104=VECTOR('',#377,0.393700787401575);
#105=VECTOR('',#382,0.393700787401575);
#106=VECTOR('',#385,0.393700787401575);
#107=VECTOR('',#388,0.393700787401575);
#108=VECTOR('',#389,0.393700787401575);
#109=VECTOR('',#390,0.393700787401575);
#110=VECTOR('',#393,0.393700787401575);
#111=VECTOR('',#394,0..393700787401575);
#112=VECTOR('',#395,0.393700787401575);
#113=VECTOR('',#402,0.171875);
#114=VECTOR('',#409,0.393700787401575);
#115=VECTOR('',#410,0.393700787401575);
#116=VECTOR('',#411,0.393700787401575);
#117=VECTOR('',#412,0.393700787401575);
#118=VECTOR('',#415,0.393700787401575);
#119=VECTOR('',#416,0.393700787401575);
#120=VECTOR('',#417,0.393700787401575);
#121=VECTOR('',#418,0.393700787401575);
#122=VECTOR('',#421,0.393700787401575);
#123=VECTOR('',#422,0.393700787401575);
#124=VECTOR('',#423,0.393700787401575);
#125=VECTOR('',#426,0.393700787401575);
#126=VECTOR('',#427,0.393700787401575);
#127=VECTOR('',#430,0.393700787401575);
#128=VECTOR('',#431,0.393700787401575);
#129=VECTOR('',#434,0.393700787401575);
#130=VECTOR('',#435,0.393700787401575);
#131=VECTOR('',#438,0.393700787401575);
#132=VECTOR('',#439,0.393700787401575);
#133=VECTOR('',#440,0.393700787401575);
#134=VECTOR('',#443,0.393700787401575);
#135=VECTOR('',#444,0.393700787401575);
#136=CIRCLE('',#340,0.03125);
#137=CIRCLE('',#341,0.03125);
#138=CIRCLE('',#344,0.03125);
#139=CIRCLE('',#345,0.03125);
#140=CIRCLE('',#349,0.171875);
#141=CIRCLE('',#350,0.171875);
#142=CIRCLE('',#351,0.171875);
#143=CIRCLE('',#352,0.171875);
#144=VERTEX_POINT('',#451);
#145=VERTEX_POINT('',#452);
#146=VERTEX_POINT('',#454);
#147=VERTEX_POINT('',#456);
#148=VERTEX_POINT('',#460);
#149=VERTEX_POINT('',#462);
#150=VERTEX_POINT('',#466);
#151=VERTEX_POINT('',#467);
#152=VERTEX_POINT('',#469);
#153=VERTEX_POINT('',#471);
#154=VERTEX_POINT('',#475);
#155=VERTEX_POINT('',#477);
#156=VERTEX_POINT('',#481);
#157=VERTEX_POINT('',#483);
#158=VERTEX_POINT('',#487);
#159=VERTEX_POINT('',#488);
#160=VERTEX_POINT('',#491);
#161=VERTEX_POINT('',#493);
#162=VERTEX_POINT('',#497);
#163=VERTEX_POINT('',#498);
#164=VERTEX_POINT('',#500);
#165=VERTEX_POINT('',#502);
#166=VERTEX_POINT('',#506);
#167=VERTEX_POINT('',#507);
#168=VERTEX_POINT('',#509);
#169=VERTEX_POINT('',#511);
#170=VERTEX_POINT('',#515);
#171=VERTEX_POINT('',#517);
#172=VERTEX_POINT('',#530);
#173=VERTEX_POINT('',#532);
#174=EDGE_CURVE('',#144,#145,#136,.T.);
#175=EDGE_CURVE('',#145,#146,#64,.T.);
#176=EDGE_CURVE('',#146,#147,#137,.T.);
#177=EDGE_CURVE('',#147,#144,#65,.T..);
#178=EDGE_CURVE('',#145,#148,#66,.T.);
#179=EDGE_CURVE('',#148,#149,#67,.T.);
#180=EDGE_CURVE('',#146,#149,#68,.T.);
#181=EDGE_CURVE('',#150,#151,#138,.T.);
#182=EDGE_CURVE('',#151,#152,#69,.T.);
#183=EDGE_CURVE('',#152,#153,#139,.T.);
#184=EDGE_CURVE('',#153,#150,#70,.T.);
#185=EDGE_CURVE('',#154,#151,#71,.T.);
#186=EDGE_CURVE('',#155,#154,#72,.T.);
#187=EDGE_CURVE('',#155,#152,#73,.T.);
#188=EDGE_CURVE('',#147,#156,#74,.T.);
#189=EDGE_CURVE('',#157,#156,#75,.T.);
#190=EDGE_CURVE('',#144,#157,#76,.T.);
#191=EDGE_CURVE('',#158,#159,#140,.T.);
#192=EDGE_CURVE('',#159,#158,#141,.T.);
#193=EDGE_CURVE('',#159,#160,#77,.T.);
#194=EDGE_CURVE('',#161,#160,#142,.T.);
#195=EDGE_CURVE('',#160,#161,#143,.T.);
#196=EDGE_CURVE('',#162,#163,#78,.T.);
#197=EDGE_CURVE('',#162,#164,#79,.T.);
#198=EDGE_CURVE('',#165,#164,#80,.T.);
#199=EDGE_CURVE('',#163,#165,#81,.T.);
#200=EDGE_CURVE('',#166,#167,#82,.T.);
#201=EDGE_CURVE('',#166,#168,#83,.T.);
#202=EDGE_CURVE('',#169,#168,#84,.T.);
#203=EDGE_CURVE('',#167,#169,#85,.T.);
#204=EDGE_CURVE('',#167,#170,#86,.T.);
#205=EDGE_CURVE('',#171,#169,#87,.T.);
#206=EDGE_CURVE('',#170,#171,#88,.T.);
#207=EDGE_CURVE('',#170,#162,#89,.T.);
#208=EDGE_CURVE('',#164,#171,#90,.T.);
#209=EDGE_CURVE('',#168,#157,#91,.T.);
#210=EDGE_CURVE('',#156,#165,#92,.T.);
#211=EDGE_CURVE('',#163,#155,#93,.T.);
#212=EDGE_CURVE('',#154,#166,#94,.T.);
#213=EDGE_CURVE('',#172,#153,#95,.T.);
#214=EDGE_CURVE('',#173,#172,#96,.T.);
#215=EDGE_CURVE('',#150,#173,#97,.T.);
#216=EDGE_CURVE('',#148,#173,#98,.T.);
#217=EDGE_CURVE('',#149,#172,#99,.T.);
#218=ORIENTED_EDGE('',*,*,#174,.T.);
#219=ORIENTED_EDGE('',*,*,#175,.T.);
#220=ORIENTED_EDGE('',*,*,#176,.T.);
#221=ORIENTED_EDGE('',*,*,#177,.T.);
#222=ORIENTED_EDGE('',*,*,#175,..F.);
#223=ORIENTED_EDGE('',*,*,#178,.T.);
#224=ORIENTED_EDGE('',*,*,#179,.T.);
#225=ORIENTED_EDGE('',*,*,#180,.F.);
#226=ORIENTED_EDGE('',*,*,#181,.T.);
#227=ORIENTED_EDGE('',*,*,#182,.T.);
#228=ORIENTED_EDGE('',*,*,#183,.T.);
#229=ORIENTED_EDGE('',*,*,#184,.T.);
#230=ORIENTED_EDGE('',*,*,#182,.F.);
#231=ORIENTED_EDGE('',*,*,#185,.F.);
#232=ORIENTED_EDGE('',*,*,#186,.F.);
#233=ORIENTED_EDGE('',*,*,#187,.T.);
#234=ORIENTED_EDGE('',*,*,#177,.F.);
#235=ORIENTED_EDGE('',*,*,#188,.T.);
#236=ORIENTED_EDGE('',*,*,#189,.F.);
#237=ORIENTED_EDGE('',*,*,#190,.F.);
#238=ORIENTED_EDGE('',*,*,#191,.F.);
#239=ORIENTED_EDGE('',*,*,#192,.F.);
#240=ORIENTED_EDGE('',*,*,#193,.T.);
#241=ORIENTED_EDGE('',*,*,#194,.F.);
#242=ORIENTED_EDGE('',*,*,#195,.F.);
#243=ORIENTED_EDGE('',*,*,#193,.F.);
#244=ORIENTED_EDGE('',*,*,#196,.F.);
#245=ORIENTED_EDGE('',*,*,#197,.T.);
#246=ORIENTED_EDGE('',*,*,#198,.F.);
#247=ORIENTED_EDGE('',*,*,#199,.F.);
#248=ORIENTED_EDGE('',*,*,#200,.F.);
#249=ORIENTED_EDGE('',*,*,#201,.T.);
#250=ORIENTED_EDGE('',*,*,#202,.F.);
#251=ORIENTED_EDGE('',*,*,#203,.F.);
#252=ORIENTED_EDGE('',*,*,#194,.T.);
#253=ORIENTED_EDGE('',*,*,#195,.T.);
#254=ORIENTED_EDGE('',*,*,#204,.F.);
#255=ORIENTED_EDGE('',*,*,#203,.T.);
#256=ORIENTED_EDGE('',*,*,#205,.F.);
#257=ORIENTED_EDGE('',*,*,#206,.F.);
#258=ORIENTED_EDGE('',*,*,#207,.F.);
#259=ORIENTED_EDGE('',*,*,#206,.T.);
#260=ORIENTED_EDGE('',*,*,#208,.F.);
#261=ORIENTED_EDGE('',*,*,#197,.F.);
#262=ORIENTED_EDGE('',*,*,#191,.T.);
#263=ORIENTED_EDGE('',*,*,#192,.T.);
#264=ORIENTED_EDGE('',*,*,#208,.T.);
#265=ORIENTED_EDGE('',*,*,#205,.T.);
#266=ORIENTED_EDGE('',*,*,#202,.T.);
#267=ORIENTED_EDGE('',*,*,#209,.T.);
#268=ORIENTED_EDGE('',*,*,#189,.T.);
#269=ORIENTED_EDGE('',*,*,#210,.T.);
#270=ORIENTED_EDGE('',*,*,#198,.T.);
#271=ORIENTED_EDGE('',*,*,#207,.T.);
#272=ORIENTED_EDGE('',*,*,#196,.T.);
#273=ORIENTED_EDGE('',*,*,#211,.T.);
#274=ORIENTED_EDGE('',*,*,#186,.T.);
#275=ORIENTED_EDGE('',*,*,#212,.T.);
#276=ORIENTED_EDGE('',*,*,#200,.T.);
#277=ORIENTED_EDGE('',*,*,#204,.T.);
#278=ORIENTED_EDGE('',*,*,#184,.F.);
#279=ORIENTED_EDGE('',*,*,#213,.F.);
#280=ORIENTED_EDGE('',*,*,#214,.F.);
#281=ORIENTED_EDGE('',*,*,#215,.F.);
#282=ORIENTED_EDGE('',*,*,#216,.T.);
#283=ORIENTED_EDGE('',*,*,#214,.T.);
#284=ORIENTED_EDGE('',*,*,#217,.F.);
#285=ORIENTED_EDGE('',*,*,#179,.F.);
#286=ORIENTED_EDGE('',*,*,#180,.T.);
#287=ORIENTED_EDGE('',*,*,#217,.T.);
#288=ORIENTED_EDGE('',*,*,#213,.T.);
#289=ORIENTED_EDGE('',*,*,#183,.F.);
#290=ORIENTED_EDGE('',*,*,#187,.F.);
#291=ORIENTED_EDGE('',*,*,#211,.F.);
#292=ORIENTED_EDGE('',*,*,#199,.T.);
#293=ORIENTED_EDGE('',*,*,#210,.F.);
#294=ORIENTED_EDGE('',*,*,#188,.F.);
#295=ORIENTED_EDGE('',*,*,#176,.F.);
#296=ORIENTED_EDGE('',*,*,#174,.F.);
#297=ORIENTED_EDGE('',*,*,#190,.T.);
#298=ORIENTED_EDGE('',*,*,#209,.F.);
#299=ORIENTED_EDGE('',*,*,#201,.F.);
#300=ORIENTED_EDGE('',*,*,#212,.F.);
#301=ORIENTED_EDGE('',*,*,#185,.T.);
#302=ORIENTED_EDGE('',*,*,#181,.F.);
#303=ORIENTED_EDGE('',*,*,#215,.T.);
#304=ORIENTED_EDGE('',*,*,#216,.F.);
#305=ORIENTED_EDGE('',*,*,#178,.F.);
#306=CYLINDRICAL_SURFACE('',#339,0.03125);
#307=CYLINDRICAL_SURFACE('',#343,0.03125);
#308=CYLINDRICAL_SURFACE('',#348,0.171875);
#309=ADVANCED_FACE('',(#30),#306,.F.);
#310=ADVANCED_FACE('',(#31),#17,.T.);
#311=ADVANCED_FACE('',(#32),#307,.F.);
#312=ADVANCED_FACE('',(#33),#18,.T.);
#313=ADVANCED_FACE('',(#34),#19,.T.);
#314=ADVANCED_FACE('',(#35),#308,.F.);
#315=ADVANCED_FACE('',(#36),#20,.T.);
#316=ADVANCED_FACE('',(#37,#15),#21,.T.);
#317=ADVANCED_FACE('',(#38),#22,.T.);
#318=ADVANCED_FACE('',(#39,#16),#23,.T.);
#319=ADVANCED_FACE('',(#40),#24,.T.);
#320=ADVANCED_FACE('',(#41),#25,.F.);
#321=ADVANCED_FACE('',(#42),#26,.T.);
#322=ADVANCED_FACE('',(#43),#27,.T.);
#323=ADVANCED_FACE('',(#44),#28,.T.);
#324=ADVANCED_FACE('',(#45),#29,.F.);
#325=CLOSED_SHELL('',(#309,#310,#311,#312,#313,#314,#315,#316,#317,#318,
#319,#320,#321,#322,#323,#324));
#326=DERIVED_UNIT_ELEMENT(#328,1.);
#327=DERIVED_UNIT_ELEMENT(#547,3.);
#328=(
MASS_UNIT()
NAMED_UNIT(*)
SI_UNIT(.KILO.,.GRAM.)
);
#329=DERIVED_UNIT((#326,#327));
#330=MEASURE_REPRESENTATION_ITEM('density measure',
POSITIVE_RATIO_MEASURE(7850.),#329);
#331=PROPERTY_DEFINITION_REPRESENTATION(#336,#333);
#332=PROPERTY_DEFINITION_REPRESENTATION(#337,#334);
#333=REPRESENTATION('material name',(#335),#542);
#334=REPRESENTATION('density',(#330),#542);
#335=DESCRIPTIVE_REPRESENTATION_ITEM('Steel','Steel');
#336=PROPERTY_DEFINITION('material property','material name',#555);
#337=PROPERTY_DEFINITION('material property','density of part',#555);
#338=AXIS2_PLACEMENT_3D('placement',#449,#363,#364);
#339=AXIS2_PLACEMENT_3D('',#450,#365,#366);
#340=AXIS2_PLACEMENT_3D('',#453,#367,#368);
#341=AXIS2_PLACEMENT_3D('',#457,#370,#371);
#342=AXIS2_PLACEMENT_3D('',#459,#373,#374);
#343=AXIS2_PLACEMENT_3D('',#465,#378,#379);
#344=AXIS2_PLACEMENT_3D('',#468,#380,#381);
#345=AXIS2_PLACEMENT_3D('',#472,#383,#384);
#346=AXIS2_PLACEMENT_3D('',#474,#386,#387);
#347=AXIS2_PLACEMENT_3D('',#480,#391,#392);
#348=AXIS2_PLACEMENT_3D('',#486,#396,#397);
#349=AXIS2_PLACEMENT_3D('',#489,#398,#399);
#350=AXIS2_PLACEMENT_3D('',#490,#400,#401);
#351=AXIS2_PLACEMENT_3D('',#494,#403,#404);
#352=AXIS2_PLACEMENT_3D('',#495,#405,#406);
#353=AXIS2_PLACEMENT_3D('',#496,#407,#408);
#354=AXIS2_PLACEMENT_3D('',#505,#413,#414);
#355=AXIS2_PLACEMENT_3D('',#514,#419,#420);
#356=AXIS2_PLACEMENT_3D('',#520,#424,#425);
#357=AXIS2_PLACEMENT_3D('',#523,#428,#429);
#358=AXIS2_PLACEMENT_3D('',#526,#432,#433);
#359=AXIS2_PLACEMENT_3D('',#529,#436,#437);
#360=AXIS2_PLACEMENT_3D('',#535,#441,#442);
#361=AXIS2_PLACEMENT_3D('',#538,#445,#446);
#362=AXIS2_PLACEMENT_3D('',#539,#447,#448);
#363=DIRECTION('axis',(0.,0.,1..));
#364=DIRECTION('refdir',(1.,0.,0.));
#365=DIRECTION('center_axis',(1.,0.,0.));
#366=DIRECTION('ref_axis',(0.,0.70710678118655,-0.707106781186546));
#367=DIRECTION('center_axis',(-1.,0.,0.));
#368=DIRECTION('ref_axis',(0.,0.70710678118655,-0.707106781186546));
#369=DIRECTION('',(1.,0.,0.));
#370=DIRECTION('center_axis',(1.,0.,0.));
#371=DIRECTION('ref_axis',(0.,0.70710678118655,-0.707106781186546));
#372=DIRECTION('',(-1.,0.,0.));
#373=DIRECTION('center_axis',(0.,0.,1.));
#374=DIRECTION('ref_axis',(0.,-1.,0.));
#375=DIRECTION('',(0.,-1.,0.));
#376=DIRECTION('',(1.,0.,0.));
#377=DIRECTION('',(0.,-1.,0.));
#378=DIRECTION('center_axis',(1.,0.,0.));
#379=DIRECTION('ref_axis',(0.,0.707106781186548,0.707106781186548));
#380=DIRECTION('center_axis',(-1.,0.,0.));
#381=DIRECTION('ref_axis',(0.,0.707106781186548,0.707106781186548));
#382=DIRECTION('',(1.,0.,0.));
#383=DIRECTION('center_axis',(1.,0.,0.));
#384=DIRECTION('ref_axis',(0.,0.707106781186548,0.707106781186548));
#385=DIRECTION('',(-1.,0.,0.));
#386=DIRECTION('center_axis',(0.,-1.,0.));
#387=DIRECTION('ref_axis',(1.,0.,0.));
#388=DIRECTION('',(0.,0.,1.));
#389=DIRECTION('',(-1.,0.,0.));
#390=DIRECTION('',(0.,0.,1.));
#391=DIRECTION('center_axis',(0.,-1.,0.));
#392=DIRECTION('ref_axis',(1.,0.,0.));
#393=DIRECTION('',(0.,0.,1.));
#394=DIRECTION('',(1.,0.,0.));
#395=DIRECTION('',(0.,0.,1.));
#396=DIRECTION('center_axis',(0.,-1.,0.));
#397=DIRECTION('ref_axis',(0.,0.,1.));
#398=DIRECTION('center_axis',(0.,-1.,0.));
#399=DIRECTION('ref_axis',(0.,0.,1.));
#400=DIRECTION('center_axis',(0.,-1.,0.));
#401=DIRECTION('ref_axis',(0.,0.,1.));
#402=DIRECTION('',(0.,-1.,0.));
#403=DIRECTION('center_axis',(0.,1.,0.));
#404=DIRECTION('ref_axis',(0.,0.,1.));
#405=DIRECTION('center_axis',(0.,1.,0.));
#406=DIRECTION('ref_axis',(0.,0.,1.));
#407=DIRECTION('center_axis',(0.554846520795006,0.83195272603777,0.));
#408=DIRECTION('ref_axis',(-0.83195272603777,0.554846520795006,0.));
#409=DIRECTION('',(0.83195272603777,-0.554846520795006,0.));
#410=DIRECTION('',(0.,0.,1.));
#411=DIRECTION('',(-0.83195272603777,0.554846520795006,0.));
#412=DIRECTION('',(0.,0.,1.));
#413=DIRECTION('center_axis',(0.,-1.,0.));
#414=DIRECTION('ref_axis',(1.,0.,0.));
#415=DIRECTION('',(-1.,0.,0.));
#416=DIRECTION('',(0.,0.,1.));
#417=DIRECTION('',(1.,0.,0.));
#418=DIRECTION('',(0.,0.,1.));
#419=DIRECTION('center_axis',(-1.,0.,0.));
#420=DIRECTION('ref_axis',(0.,-1.,0.));
#421=DIRECTION('',(0.,1.,0.));
#422=DIRECTION('',(0.,-1.,0.));
#423=DIRECTION('',(0.,0.,1.));
#424=DIRECTION('center_axis',(0.,1.,0.));
#425=DIRECTION('ref_axis',(-1.,0.,0.));
#426=DIRECTION('',(1.,0.,0.));
#427=DIRECTION('',(-1.,0.,0.));
#428=DIRECTION('center_axis',(0.,0.,1.));
#429=DIRECTION('ref_axis',(1.,0.,0.));
#430=DIRECTION('',(0.,-1.,0.));
#431=DIRECTION('',(0.,1.,0.));
#432=DIRECTION('center_axis',(0.,0.,1.));
#433=DIRECTION('ref_axis',(1.,0.,0.));
#434=DIRECTION('',(0.,-1.,0.));
#435=DIRECTION('',(0.,1..,0.));
#436=DIRECTION('center_axis',(0.,0.,-1.));
#437=DIRECTION('ref_axis',(0.,1.,0.));
#438=DIRECTION('',(0.,1.,0.));
#439=DIRECTION('',(1.,0.,0.));
#440=DIRECTION('',(0.,-1.,0.));
#441=DIRECTION('center_axis',(0.,-1.,0.));
#442=DIRECTION('ref_axis',(0.,0..,-1.));
#443=DIRECTION('',(0.,0.,-1.));
#444=DIRECTION('',(0.,0.,-1.));
#445=DIRECTION('center_axis',(1.,0.,0.));
#446=DIRECTION('ref_axis',(0.,0.,-1.));
#447=DIRECTION('center_axis',(1.,0.,0.));
#448=DIRECTION('ref_axis',(0.,1.,0.));
#449=CARTESIAN_POINT('',(0.,0.,0.));
#450=CARTESIAN_POINT('Origin',(0.93725,0.34375,0.4375));
#451=CARTESIAN_POINT('',(0.93725,0.375,0.4375));
#452=CARTESIAN_POINT('',(0.93725,0.34375,0.40625));
#453=CARTESIAN_POINT('Origin',(0.93725,0.34375,0.4375));
#454=CARTESIAN_POINT('',(1.281,0.34375,0.40625));
#455=CARTESIAN_POINT('',(0.93725,0.34375,0.40625));
#456=CARTESIAN_POINT('',(1.281,0.375,0.4375));
#457=CARTESIAN_POINT('Origin',(1.281,0.34375,0.4375));
#458=CARTESIAN_POINT('',(0.93725,0..375,0.4375));
#459=CARTESIAN_POINT('Origin',(0.93725,0.375,0.40625));
#460=CARTESIAN_POINT('',(0.93725,4.37095678986282E-17,0.40625));
#461=CARTESIAN_POINT('',(0.93725,0.375,0.40625));
#462=CARTESIAN_POINT('',(1.281,4.37095678986282E-17,0.40625));
#463=CARTESIAN_POINT('',(0.93725,4.37095678986282E-17,0.40625));
#464=CARTESIAN_POINT('',(1.281,0.375,0.40625));
#465=CARTESIAN_POINT('Origin',(0.93725,0.34375,0.1875));
#466=CARTESIAN_POINT('',(0.93725,0.34375,0.21875));
#467=CARTESIAN_POINT('',(0.93725,0.375,0.1875));
#468=CARTESIAN_POINT('Origin',(0.93725,0.34375,0.1875));
#469=CARTESIAN_POINT('',(1.281,0.375,0.1875));
#470=CARTESIAN_POINT('',(0.93725,0.375,0.1875));
#471=CARTESIAN_POINT('',(1.281,0.34375,0.21875));
#472=CARTESIAN_POINT('Origin',(1.281,0.34375,0.1875));
#473=CARTESIAN_POINT('',(0.93725,0.34375,0.21875));
#474=CARTESIAN_POINT('Origin',(0.93725,0.375,0.));
#475=CARTESIAN_POINT('',(0.93725,0.375,0.));
#476=CARTESIAN_POINT('',(0.93725,0.375,0.));
#477=CARTESIAN_POINT('',(1.281,0.375,0..));
#478=CARTESIAN_POINT('',(1.281,0.375,0.));
#479=CARTESIAN_POINT('',(1.281,0.375,0.));
#480=CARTESIAN_POINT('Origin',(0.93725,0..375,0.));
#481=CARTESIAN_POINT('',(1.281,0.375,0.625));
#482=CARTESIAN_POINT('',(1.281,0.375,0.));
#483=CARTESIAN_POINT('',(0.93725,0.375,0.625));
#484=CARTESIAN_POINT('',(1.281,0.375,0.625));
#485=CARTESIAN_POINT('',(0.93725,0.375,0.));
#486=CARTESIAN_POINT('Origin',(0.30672449295915,1.0625,0.314148415730694));
#487=CARTESIAN_POINT('',(0.30672449295915,1.375,0.486023415730694));
#488=CARTESIAN_POINT('',(0.30672449295915,1.375,0.142273415730694));
#489=CARTESIAN_POINT('Origin',(0.30672449295915,1.375,0.314148415730694));
#490=CARTESIAN_POINT('Origin',(0.30672449295915,1.375,0.314148415730694));
#491=CARTESIAN_POINT('',(0.30672449295915,0.75,0.142273415730694));
#492=CARTESIAN_POINT('',(0.30672449295915,1.0625,0.142273415730694));
#493=CARTESIAN_POINT('',(0.30672449295915,0.75,0.486023415730694));
#494=CARTESIAN_POINT('Origin',(0.30672449295915,0.75,0.314148415730694));
#495=CARTESIAN_POINT('Origin',(0.30672449295915,0.75,0.314148415730694));
#496=CARTESIAN_POINT('Origin',(1.281,0.9375,0.));
#497=CARTESIAN_POINT('',(0.625,1.375,0.));
#498=CARTESIAN_POINT('',(1.281,0.9375,0.));
#499=CARTESIAN_POINT('',(0.625,1.375,0.));
#500=CARTESIAN_POINT('',(0.625,1.375,0.625));
#501=CARTESIAN_POINT('',(0.625,1.375,0.));
#502=CARTESIAN_POINT('',(1.281,0.9375,0.625));
#503=CARTESIAN_POINT('',(0.625,1.375,0.625));
#504=CARTESIAN_POINT('',(1.281,0.9375,0.));
#505=CARTESIAN_POINT('Origin',(0.,0.75,0.));
#506=CARTESIAN_POINT('',(0.93725,0.75,0.));
#507=CARTESIAN_POINT('',(0.,0.75,0..));
#508=CARTESIAN_POINT('',(0.93725,0.75,0.));
#509=CARTESIAN_POINT('',(0.93725,0.75,0.625));
#510=CARTESIAN_POINT('',(0.93725,0.75,0.));
#511=CARTESIAN_POINT('',(0.,0.75,0.625));
#512=CARTESIAN_POINT('',(0.93725,0.75,0.625));
#513=CARTESIAN_POINT('',(0.,0.75,0.));
#514=CARTESIAN_POINT('Origin',(0.,1.375,0.));
#515=CARTESIAN_POINT('',(0.,1.375,0.));
#516=CARTESIAN_POINT('',(0.,0.75,0.));
#517=CARTESIAN_POINT('',(0.,1.375,0.625));
#518=CARTESIAN_POINT('',(0.,0.75,0.625));
#519=CARTESIAN_POINT('',(0.,1.375,0.));
#520=CARTESIAN_POINT('Origin',(0.625,1.375,0.));
#521=CARTESIAN_POINT('',(0.,1.375,0.));
#522=CARTESIAN_POINT('',(0.,1.375,0.625));
#523=CARTESIAN_POINT('Origin',(0.6405,0.875,0.625));
#524=CARTESIAN_POINT('',(0.93725,0.,0.625));
#525=CARTESIAN_POINT('',(1.281,0.75,0.625));
#526=CARTESIAN_POINT('Origin',(0.6405,0.875,0.));
#527=CARTESIAN_POINT('',(1.281,0.75,0.));
#528=CARTESIAN_POINT('',(0.93725,0..,0.));
#529=CARTESIAN_POINT('Origin',(0.93725,4.37095678986282E-17,0..21875));
#530=CARTESIAN_POINT('',(1.281,4.37095678986282E-17,0.21875));
#531=CARTESIAN_POINT('',(1.281,0.375,0.21875));
#532=CARTESIAN_POINT('',(0.93725,4.37095678986282E-17,0.21875));
#533=CARTESIAN_POINT('',(0.93725,4.37095678986282E-17,0.21875));
#534=CARTESIAN_POINT('',(0.93725,0.375,0.21875));
#535=CARTESIAN_POINT('Origin',(0.93725,4.37095678986282E-17,0.40625));
#536=CARTESIAN_POINT('',(0.93725,4.37095678986282E-17,0.40625));
#537=CARTESIAN_POINT('',(1.281,4.37095678986282E-17,0.40625));
#538=CARTESIAN_POINT('Origin',(1.281,0.1875,0..3125));
#539=CARTESIAN_POINT('Origin',(0.93725,0.1875,0.3125));
#540=UNCERTAINTY_MEASURE_WITH_UNIT(LENGTH_MEASURE(0.000393700787401575),
#545,'DISTANCE_ACCURACY_VALUE',
'Maximum model space distance between geometric entities at asserted c
onnectivities');
#541=UNCERTAINTY_MEASURE_WITH_UNIT(LENGTH_MEASURE(0.000393700787401575),
#545,'DISTANCE_ACCURACY_VALUE',
'Maximum model space distance between geometric entities at asserted c
onnectivities');
#542=(
GEOMETRIC_REPRESENTATION_CONTEXT(3)
GLOBAL_UNCERTAINTY_ASSIGNED_CONTEXT((#540))
GLOBAL_UNIT_ASSIGNED_CONTEXT((#545,#549,#550))
REPRESENTATION_CONTEXT('','3D')
);
#543=(
GEOMETRIC_REPRESENTATION_CONTEXT(3)
GLOBAL_UNCERTAINTY_ASSIGNED_CONTEXT((#541))
GLOBAL_UNIT_ASSIGNED_CONTEXT((#545,#549,#550))
REPRESENTATION_CONTEXT('','3D')
);
#544=DIMENSIONAL_EXPONENTS(1.,0.,0.,0.,0.,0.,0.);
#545=(
CONVERSION_BASED_UNIT('inch',#548)
LENGTH_UNIT()
NAMED_UNIT(#544)
);
#546=(
LENGTH_UNIT()
NAMED_UNIT(*)
SI_UNIT(.MILLI.,.METRE.)
);
#547=(
LENGTH_UNIT()
NAMED_UNIT(*)
SI_UNIT($,.METRE.)
);
#548=LENGTH_MEASURE_WITH_UNIT(LENGTH_MEASURE(25.4),#546);
#549=(
NAMED_UNIT(*)
PLANE_ANGLE_UNIT()
SI_UNIT($,.RADIAN.)
);
#550=(
NAMED_UNIT(*)
SI_UNIT($,.STERADIAN.)
SOLID_ANGLE_UNIT()
);
#551=SHAPE_DEFINITION_REPRESENTATION(#552,#553);
#552=PRODUCT_DEFINITION_SHAPE('',$,#555);
#553=SHAPE_REPRESENTATION('',(#338),#542);
#554=PRODUCT_DEFINITION_CONTEXT('part definition',#559,'design');
#555=PRODUCT_DEFINITION('MG Camshaft tool','MG Camshaft tool v2',#556,#554);
#556=PRODUCT_DEFINITION_FORMATION('',$,#561);
#557=PRODUCT_RELATED_PRODUCT_CATEGORY('MG Camshaft tool v2',
'MG Camshaft tool v2',(#561));
#558=APPLICATION_PROTOCOL_DEFINITION('international standard',
'automotive_design',2009,#559);
#559=APPLICATION_CONTEXT(
'Core Data for Automotive Mechanical Design Process');
#560=PRODUCT_CONTEXT('part definition',#559,'mechanical');
#561=PRODUCT('MG Camshaft tool','MG Camshaft tool v2',$,(#560));
#562=PRESENTATION_STYLE_ASSIGNMENT((#563));
#563=SURFACE_STYLE_USAGE(.BOTH.,#564);
#564=SURFACE_SIDE_STYLE('',(#565));
#565=SURFACE_STYLE_FILL_AREA(#566);
#566=FILL_AREA_STYLE('Steel - Satin',(#567));
#567=FILL_AREA_STYLE_COLOUR('Steel - Satin',#568);
#568=COLOUR_RGB('Steel - Satin',0.627450980392157,0.627450980392157,0.627450980392157);
ENDSEC;
END-ISO-10303-21;
